  0
SECTION
  2
ENTITIES
  0
ARC
  8
0
 10
0.720
 20
0.000
 40
0.720
 50
67.500
 51
-1.048
  0
ARC
  8
0
 10
0.720
 20
0.000
 40
0.900
 50
67.500
 51
-28.767
  0
LINE
  8
0
 10
0.996
 20
0.665
 11
1.064
 21
0.831
  0
LINE
  8
0
 10
1.440
 20
-0.013
 11
1.451
 21
0.609
  0
ARC
  8
0
 10
1.541
 20
0.608
 40
0.090
 50
3.180
 51
-176.820
  0
LINE
  8
0
 10
1.451
 20
0.603
 11
1.530
 21
-0.815
  0
LINE
  8
0
 10
1.631
 20
0.612
 11
1.710
 21
-0.805
  0
ARC
  8
0
 10
1.620
 20
-0.810
 40
0.090
 50
-176.820
 51
3.180
  0
LINE
  8
0
 10
1.620
 20
0.815
 11
1.620
 21
0.812
  0
LINE
  8
0
 10
1.710
 20
-0.815
 11
1.710
 21
-0.812
  0
ARC
  8
0
 10
1.710
 20
0.810
 40
0.090
 50
3.180
 51
-176.820
  0
LINE
  8
0
 10
1.620
 20
0.805
 11
1.710
 21
-0.815
  0
LINE
  8
0
 10
1.800
 20
0.815
 11
1.890
 21
-0.805
  0
ARC
  8
0
 10
1.800
 20
-0.810
 40
0.090
 50
-176.820
 51
3.180
  0
LINE
  8
0
 10
1.800
 20
0.815
 11
1.800
 21
0.812
  0
LINE
  8
0
 10
1.890
 20
-0.815
 11
1.890
 21
-0.812
  0
ARC
  8
0
 10
1.890
 20
0.810
 40
0.090
 50
3.180
 51
-176.820
  0
LINE
  8
0
 10
1.800
 20
0.805
 11
1.890
 21
-0.815
  0
LINE
  8
0
 10
1.980
 20
0.815
 11
2.070
 21
-0.805
  0
ARC
  8
0
 10
1.980
 20
-0.810
 40
0.090
 50
-176.820
 51
3.180
  0
LINE
  8
0
 10
1.980
 20
0.815
 11
1.980
 21
0.812
  0
LINE
  8
0
 10
2.070
 20
-0.815
 11
2.070
 21
-0.812
  0
ARC
  8
0
 10
2.070
 20
0.810
 40
0.090
 50
3.180
 51
-176.820
  0
LINE
  8
0
 10
1.980
 20
0.805
 11
2.070
 21
-0.815
  0
LINE
  8
0
 10
2.160
 20
0.815
 11
2.250
 21
-0.805
  0
ARC
  8
0
 10
2.160
 20
-0.810
 40
0.090
 50
-176.820
 51
3.180
  0
LINE
  8
0
 10
2.160
 20
0.815
 11
2.160
 21
0.812
  0
LINE
  8
0
 10
2.250
 20
-0.815
 11
2.250
 21
-0.812
  0
ARC
  8
0
 10
2.250
 20
0.810
 40
0.090
 50
3.180
 51
-176.820
  0
LINE
  8
0
 10
2.160
 20
0.805
 11
2.250
 21
-0.815
  0
LINE
  8
0
 10
2.340
 20
0.815
 11
2.430
 21
-0.805
  0
ARC
  8
0
 10
2.340
 20
-0.810
 40
0.090
 50
-176.820
 51
3.180
  0
LINE
  8
0
 10
2.340
 20
0.815
 11
2.340
 21
0.812
  0
LINE
  8
0
 10
2.430
 20
-0.815
 11
2.430
 21
-0.812
  0
ARC
  8
0
 10
2.430
 20
0.810
 40
0.090
 50
3.180
 51
-176.820
  0
LINE
  8
0
 10
2.340
 20
0.805
 11
2.430
 21
-0.815
  0
LINE
  8
0
 10
2.520
 20
0.815
 11
2.610
 21
-0.805
  0
ARC
  8
0
 10
2.520
 20
-0.810
 40
0.090
 50
-176.820
 51
3.180
  0
LINE
  8
0
 10
2.520
 20
0.815
 11
2.520
 21
0.812
  0
LINE
  8
0
 10
2.610
 20
-0.815
 11
2.610
 21
-0.812
  0
ARC
  8
0
 10
2.610
 20
0.810
 40
0.090
 50
3.180
 51
-176.820
  0
LINE
  8
0
 10
2.520
 20
0.805
 11
2.610
 21
-0.815
  0
LINE
  8
0
 10
2.700
 20
0.815
 11
2.790
 21
-0.805
  0
ARC
  8
0
 10
2.700
 20
-0.810
 40
0.090
 50
-176.820
 51
3.180
  0
LINE
  8
0
 10
2.700
 20
0.815
 11
2.700
 21
0.812
  0
LINE
  8
0
 10
2.790
 20
-0.815
 11
2.790
 21
-0.812
  0
ARC
  8
0
 10
2.790
 20
0.810
 40
0.090
 50
3.180
 51
-176.820
  0
LINE
  8
0
 10
2.700
 20
0.805
 11
2.790
 21
-0.815
  0
LINE
  8
0
 10
2.880
 20
0.815
 11
2.970
 21
-0.805
  0
ARC
  8
0
 10
2.880
 20
-0.810
 40
0.090
 50
-176.820
 51
3.180
  0
LINE
  8
0
 10
2.880
 20
0.815
 11
2.880
 21
0.812
  0
LINE
  8
0
 10
2.970
 20
-0.815
 11
2.970
 21
-0.812
  0
ARC
  8
0
 10
2.970
 20
0.810
 40
0.090
 50
3.180
 51
-176.820
  0
LINE
  8
0
 10
2.880
 20
0.805
 11
2.970
 21
-0.815
  0
LINE
  8
0
 10
3.060
 20
0.815
 11
3.150
 21
-0.805
  0
ARC
  8
0
 10
3.060
 20
-0.810
 40
0.090
 50
-176.820
 51
3.180
  0
LINE
  8
0
 10
3.060
 20
0.815
 11
3.060
 21
0.812
  0
LINE
  8
0
 10
3.150
 20
-0.815
 11
3.150
 21
-0.812
  0
ARC
  8
0
 10
3.150
 20
0.810
 40
0.090
 50
3.180
 51
-176.820
  0
LINE
  8
0
 10
3.060
 20
0.805
 11
3.150
 21
-0.815
  0
LINE
  8
0
 10
3.240
 20
0.815
 11
3.330
 21
-0.805
  0
ARC
  8
0
 10
3.240
 20
-0.810
 40
0.090
 50
-176.820
 51
3.180
  0
LINE
  8
0
 10
3.240
 20
0.815
 11
3.240
 21
0.812
  0
LINE
  8
0
 10
3.330
 20
-0.815
 11
3.330
 21
-0.812
  0
ARC
  8
0
 10
3.330
 20
0.810
 40
0.090
 50
3.180
 51
-176.820
  0
LINE
  8
0
 10
3.240
 20
0.805
 11
3.330
 21
-0.815
  0
LINE
  8
0
 10
3.420
 20
0.815
 11
3.510
 21
-0.805
  0
ARC
  8
0
 10
3.420
 20
-0.810
 40
0.090
 50
-176.820
 51
3.180
  0
LINE
  8
0
 10
3.420
 20
0.815
 11
3.420
 21
0.812
  0
LINE
  8
0
 10
3.510
 20
-0.815
 11
3.510
 21
-0.812
  0
ARC
  8
0
 10
3.510
 20
0.810
 40
0.090
 50
3.180
 51
-176.820
  0
LINE
  8
0
 10
3.420
 20
0.805
 11
3.510
 21
-0.815
  0
LINE
  8
0
 10
3.600
 20
0.815
 11
3.690
 21
-0.805
  0
ARC
  8
0
 10
3.600
 20
-0.810
 40
0.090
 50
-176.820
 51
3.180
  0
LINE
  8
0
 10
3.600
 20
0.815
 11
3.600
 21
0.812
  0
LINE
  8
0
 10
3.690
 20
-0.815
 11
3.690
 21
-0.812
  0
ARC
  8
0
 10
3.690
 20
0.810
 40
0.090
 50
3.180
 51
-176.820
  0
LINE
  8
0
 10
3.600
 20
0.805
 11
3.690
 21
-0.815
  0
LINE
  8
0
 10
3.780
 20
0.815
 11
3.870
 21
-0.805
  0
ARC
  8
0
 10
3.780
 20
-0.810
 40
0.090
 50
-176.820
 51
3.180
  0
LINE
  8
0
 10
3.780
 20
0.815
 11
3.780
 21
0.812
  0
LINE
  8
0
 10
3.870
 20
-0.815
 11
3.870
 21
-0.812
  0
ARC
  8
0
 10
3.870
 20
0.810
 40
0.090
 50
3.180
 51
-176.820
  0
LINE
  8
0
 10
3.780
 20
0.805
 11
3.870
 21
-0.815
  0
LINE
  8
0
 10
3.960
 20
0.815
 11
4.050
 21
-0.805
  0
ARC
  8
0
 10
3.960
 20
-0.810
 40
0.090
 50
-176.820
 51
3.180
  0
LINE
  8
0
 10
3.960
 20
0.815
 11
3.960
 21
0.812
  0
LINE
  8
0
 10
4.050
 20
-0.815
 11
4.050
 21
-0.812
  0
ARC
  8
0
 10
4.050
 20
0.810
 40
0.090
 50
3.180
 51
-176.820
  0
LINE
  8
0
 10
3.960
 20
0.805
 11
4.050
 21
-0.815
  0
LINE
  8
0
 10
4.140
 20
0.815
 11
4.230
 21
-0.805
  0
ARC
  8
0
 10
4.140
 20
-0.810
 40
0.090
 50
-176.820
 51
3.180
  0
LINE
  8
0
 10
4.140
 20
0.815
 11
4.140
 21
0.812
  0
LINE
  8
0
 10
4.230
 20
-0.815
 11
4.230
 21
-0.812
  0
ARC
  8
0
 10
4.230
 20
0.810
 40
0.090
 50
3.180
 51
-176.820
  0
LINE
  8
0
 10
4.140
 20
0.805
 11
4.230
 21
-0.815
  0
LINE
  8
0
 10
4.320
 20
0.815
 11
4.410
 21
-0.805
  0
ARC
  8
0
 10
4.320
 20
-0.810
 40
0.090
 50
-176.820
 51
3.180
  0
LINE
  8
0
 10
4.320
 20
0.815
 11
4.320
 21
0.812
  0
LINE
  8
0
 10
4.410
 20
-0.815
 11
4.410
 21
-0.812
  0
ARC
  8
0
 10
4.410
 20
0.810
 40
0.090
 50
3.180
 51
-176.820
  0
LINE
  8
0
 10
4.320
 20
0.805
 11
4.410
 21
-0.815
  0
LINE
  8
0
 10
4.500
 20
0.815
 11
4.590
 21
-0.805
  0
ARC
  8
0
 10
4.500
 20
-0.810
 40
0.090
 50
-176.820
 51
3.180
  0
LINE
  8
0
 10
4.500
 20
0.815
 11
4.500
 21
0.812
  0
LINE
  8
0
 10
4.590
 20
-0.815
 11
4.590
 21
-0.812
  0
ARC
  8
0
 10
4.590
 20
0.810
 40
0.090
 50
3.180
 51
-176.820
  0
LINE
  8
0
 10
4.500
 20
0.805
 11
4.590
 21
-0.815
  0
LINE
  8
0
 10
4.680
 20
0.815
 11
4.770
 21
-0.805
  0
ARC
  8
0
 10
4.680
 20
-0.810
 40
0.090
 50
-176.820
 51
3.180
  0
LINE
  8
0
 10
4.680
 20
0.815
 11
4.680
 21
0.812
  0
LINE
  8
0
 10
4.770
 20
-0.815
 11
4.770
 21
-0.812
  0
ARC
  8
0
 10
4.770
 20
0.810
 40
0.090
 50
3.180
 51
-176.820
  0
LINE
  8
0
 10
4.680
 20
0.805
 11
4.770
 21
-0.815
  0
LINE
  8
0
 10
4.860
 20
0.815
 11
4.950
 21
-0.805
  0
ARC
  8
0
 10
4.860
 20
-0.810
 40
0.090
 50
-176.820
 51
3.180
  0
LINE
  8
0
 10
4.860
 20
0.815
 11
4.860
 21
0.812
  0
LINE
  8
0
 10
4.950
 20
-0.815
 11
4.950
 21
-0.812
  0
ARC
  8
0
 10
4.950
 20
0.810
 40
0.090
 50
3.180
 51
-176.820
  0
LINE
  8
0
 10
4.860
 20
0.805
 11
4.950
 21
-0.815
  0
LINE
  8
0
 10
5.040
 20
0.815
 11
5.130
 21
-0.805
  0
ARC
  8
0
 10
5.040
 20
-0.810
 40
0.090
 50
-176.820
 51
3.180
  0
LINE
  8
0
 10
5.040
 20
0.815
 11
5.040
 21
0.812
  0
LINE
  8
0
 10
5.130
 20
-0.815
 11
5.130
 21
-0.812
  0
ARC
  8
0
 10
5.130
 20
0.810
 40
0.090
 50
3.180
 51
-176.820
  0
LINE
  8
0
 10
5.040
 20
0.805
 11
5.130
 21
-0.815
  0
LINE
  8
0
 10
5.220
 20
0.815
 11
5.310
 21
-0.805
  0
ARC
  8
0
 10
5.220
 20
-0.810
 40
0.090
 50
-176.820
 51
3.180
  0
LINE
  8
0
 10
5.220
 20
0.815
 11
5.220
 21
0.812
  0
LINE
  8
0
 10
5.310
 20
-0.815
 11
5.310
 21
-0.812
  0
ARC
  8
0
 10
5.310
 20
0.810
 40
0.090
 50
3.180
 51
-176.820
  0
LINE
  8
0
 10
5.220
 20
0.805
 11
5.310
 21
-0.815
  0
LINE
  8
0
 10
5.400
 20
0.815
 11
5.490
 21
-0.805
  0
ARC
  8
0
 10
5.400
 20
-0.810
 40
0.090
 50
-176.820
 51
3.180
  0
LINE
  8
0
 10
5.400
 20
0.815
 11
5.400
 21
0.812
  0
LINE
  8
0
 10
5.490
 20
-0.815
 11
5.490
 21
-0.812
  0
ARC
  8
0
 10
5.490
 20
0.810
 40
0.090
 50
3.180
 51
-176.820
  0
LINE
  8
0
 10
5.400
 20
0.805
 11
5.490
 21
-0.815
  0
LINE
  8
0
 10
5.580
 20
0.815
 11
5.670
 21
-0.805
  0
ARC
  8
0
 10
5.580
 20
-0.810
 40
0.090
 50
-176.820
 51
3.180
  0
LINE
  8
0
 10
5.580
 20
0.815
 11
5.580
 21
0.812
  0
LINE
  8
0
 10
5.670
 20
-0.815
 11
5.670
 21
-0.812
  0
ARC
  8
0
 10
5.670
 20
0.810
 40
0.090
 50
3.180
 51
-176.820
  0
LINE
  8
0
 10
5.580
 20
0.805
 11
5.670
 21
-0.815
  0
LINE
  8
0
 10
5.760
 20
0.815
 11
5.850
 21
-0.805
  0
ARC
  8
0
 10
5.760
 20
-0.810
 40
0.090
 50
-176.820
 51
3.180
  0
LINE
  8
0
 10
5.760
 20
0.815
 11
5.760
 21
0.812
  0
LINE
  8
0
 10
5.850
 20
-0.815
 11
5.850
 21
-0.812
  0
ARC
  8
0
 10
5.850
 20
0.810
 40
0.090
 50
3.180
 51
-176.820
  0
LINE
  8
0
 10
5.760
 20
0.805
 11
5.850
 21
-0.815
  0
LINE
  8
0
 10
5.940
 20
0.815
 11
6.030
 21
-0.805
  0
ARC
  8
0
 10
5.940
 20
-0.810
 40
0.090
 50
-176.820
 51
3.180
  0
LINE
  8
0
 10
5.940
 20
0.815
 11
5.940
 21
0.812
  0
LINE
  8
0
 10
6.030
 20
-0.815
 11
6.030
 21
-0.812
  0
ARC
  8
0
 10
6.030
 20
0.810
 40
0.090
 50
3.180
 51
-176.820
  0
LINE
  8
0
 10
5.940
 20
0.805
 11
6.030
 21
-0.815
  0
LINE
  8
0
 10
6.120
 20
0.815
 11
6.210
 21
-0.805
  0
ARC
  8
0
 10
6.120
 20
-0.810
 40
0.090
 50
-176.820
 51
3.180
  0
LINE
  8
0
 10
6.120
 20
0.815
 11
6.120
 21
0.812
  0
LINE
  8
0
 10
6.210
 20
-0.815
 11
6.210
 21
-0.812
  0
ARC
  8
0
 10
6.210
 20
0.810
 40
0.090
 50
3.180
 51
-176.820
  0
LINE
  8
0
 10
6.120
 20
0.805
 11
6.210
 21
-0.815
  0
LINE
  8
0
 10
6.300
 20
0.815
 11
6.390
 21
-0.805
  0
ARC
  8
0
 10
6.300
 20
-0.810
 40
0.090
 50
-176.820
 51
3.180
  0
LINE
  8
0
 10
6.300
 20
0.815
 11
6.300
 21
0.812
  0
LINE
  8
0
 10
6.390
 20
-0.815
 11
6.390
 21
-0.812
  0
ARC
  8
0
 10
6.390
 20
0.810
 40
0.090
 50
3.180
 51
-176.820
  0
LINE
  8
0
 10
6.300
 20
0.805
 11
6.390
 21
-0.815
  0
LINE
  8
0
 10
6.480
 20
0.815
 11
6.570
 21
-0.805
  0
ARC
  8
0
 10
6.480
 20
-0.810
 40
0.090
 50
-176.820
 51
3.180
  0
LINE
  8
0
 10
6.480
 20
0.815
 11
6.480
 21
0.812
  0
LINE
  8
0
 10
6.570
 20
-0.815
 11
6.570
 21
-0.812
  0
ARC
  8
0
 10
6.570
 20
0.810
 40
0.090
 50
3.180
 51
-176.820
  0
LINE
  8
0
 10
6.480
 20
0.805
 11
6.570
 21
-0.815
  0
LINE
  8
0
 10
6.660
 20
0.815
 11
6.750
 21
-0.805
  0
ARC
  8
0
 10
6.660
 20
-0.810
 40
0.090
 50
-176.820
 51
3.180
  0
LINE
  8
0
 10
6.660
 20
0.815
 11
6.660
 21
0.812
  0
LINE
  8
0
 10
6.750
 20
-0.815
 11
6.750
 21
-0.812
  0
ARC
  8
0
 10
6.750
 20
0.810
 40
0.090
 50
3.180
 51
-176.820
  0
LINE
  8
0
 10
6.660
 20
0.805
 11
6.750
 21
-0.815
  0
LINE
  8
0
 10
6.840
 20
0.815
 11
6.930
 21
-0.805
  0
ARC
  8
0
 10
6.840
 20
-0.810
 40
0.090
 50
-176.820
 51
3.180
  0
LINE
  8
0
 10
6.840
 20
0.815
 11
6.840
 21
0.812
  0
LINE
  8
0
 10
6.930
 20
-0.815
 11
6.930
 21
-0.812
  0
ARC
  8
0
 10
6.930
 20
0.810
 40
0.090
 50
3.180
 51
-176.820
  0
LINE
  8
0
 10
6.840
 20
0.805
 11
6.930
 21
-0.815
  0
LINE
  8
0
 10
7.020
 20
0.815
 11
7.110
 21
-0.805
  0
ARC
  8
0
 10
7.020
 20
-0.810
 40
0.090
 50
-176.820
 51
3.180
  0
LINE
  8
0
 10
7.020
 20
0.815
 11
7.020
 21
0.812
  0
LINE
  8
0
 10
7.110
 20
-0.815
 11
7.110
 21
-0.812
  0
ARC
  8
0
 10
7.110
 20
0.810
 40
0.090
 50
3.180
 51
-176.820
  0
LINE
  8
0
 10
7.020
 20
0.805
 11
7.110
 21
-0.815
  0
LINE
  8
0
 10
7.200
 20
0.815
 11
7.290
 21
-0.805
  0
ARC
  8
0
 10
7.200
 20
-0.810
 40
0.090
 50
-176.820
 51
3.180
  0
LINE
  8
0
 10
7.200
 20
0.815
 11
7.200
 21
0.812
  0
LINE
  8
0
 10
7.290
 20
-0.815
 11
7.290
 21
-0.812
  0
ARC
  8
0
 10
7.290
 20
0.810
 40
0.090
 50
3.180
 51
-176.820
  0
LINE
  8
0
 10
7.200
 20
0.805
 11
7.290
 21
-0.815
  0
LINE
  8
0
 10
7.380
 20
0.815
 11
7.470
 21
-0.805
  0
ARC
  8
0
 10
7.380
 20
-0.810
 40
0.090
 50
-176.820
 51
3.180
  0
LINE
  8
0
 10
7.380
 20
0.815
 11
7.380
 21
0.812
  0
LINE
  8
0
 10
7.470
 20
-0.815
 11
7.470
 21
-0.812
  0
ARC
  8
0
 10
7.470
 20
0.810
 40
0.090
 50
3.180
 51
-176.820
  0
LINE
  8
0
 10
7.380
 20
0.805
 11
7.470
 21
-0.815
  0
LINE
  8
0
 10
7.560
 20
0.815
 11
7.650
 21
-0.805
  0
ARC
  8
0
 10
7.560
 20
-0.810
 40
0.090
 50
-176.820
 51
3.180
  0
LINE
  8
0
 10
7.560
 20
0.815
 11
7.560
 21
0.812
  0
LINE
  8
0
 10
7.650
 20
-0.815
 11
7.650
 21
-0.812
  0
ARC
  8
0
 10
7.650
 20
0.810
 40
0.090
 50
3.180
 51
-176.820
  0
LINE
  8
0
 10
7.560
 20
0.805
 11
7.650
 21
-0.815
  0
LINE
  8
0
 10
7.740
 20
0.815
 11
7.830
 21
-0.805
  0
ARC
  8
0
 10
7.740
 20
-0.810
 40
0.090
 50
-176.820
 51
3.180
  0
LINE
  8
0
 10
7.740
 20
0.815
 11
7.740
 21
0.812
  0
LINE
  8
0
 10
7.830
 20
-0.815
 11
7.830
 21
-0.812
  0
ARC
  8
0
 10
7.830
 20
0.810
 40
0.090
 50
3.180
 51
-176.820
  0
LINE
  8
0
 10
7.740
 20
0.805
 11
7.830
 21
-0.815
  0
LINE
  8
0
 10
7.920
 20
0.815
 11
8.010
 21
-0.805
  0
ARC
  8
0
 10
7.920
 20
-0.810
 40
0.090
 50
-176.820
 51
3.180
  0
LINE
  8
0
 10
7.920
 20
0.815
 11
7.920
 21
0.812
  0
LINE
  8
0
 10
8.010
 20
-0.815
 11
8.010
 21
-0.812
  0
ARC
  8
0
 10
8.010
 20
0.810
 40
0.090
 50
3.180
 51
-176.820
  0
LINE
  8
0
 10
7.920
 20
0.805
 11
8.010
 21
-0.815
  0
LINE
  8
0
 10
8.100
 20
0.815
 11
8.190
 21
-0.805
  0
ARC
  8
0
 10
8.100
 20
-0.810
 40
0.090
 50
-176.820
 51
3.180
  0
LINE
  8
0
 10
8.100
 20
0.815
 11
8.100
 21
0.812
  0
LINE
  8
0
 10
8.190
 20
-0.815
 11
8.190
 21
-0.812
  0
ARC
  8
0
 10
8.190
 20
0.810
 40
0.090
 50
3.180
 51
-176.820
  0
LINE
  8
0
 10
8.100
 20
0.805
 11
8.190
 21
-0.815
  0
LINE
  8
0
 10
8.280
 20
0.815
 11
8.370
 21
-0.805
  0
ARC
  8
0
 10
8.280
 20
-0.810
 40
0.090
 50
-176.820
 51
3.180
  0
LINE
  8
0
 10
8.280
 20
0.815
 11
8.280
 21
0.812
  0
LINE
  8
0
 10
8.370
 20
-0.815
 11
8.370
 21
-0.812
  0
ARC
  8
0
 10
8.370
 20
0.810
 40
0.090
 50
3.180
 51
-176.820
  0
LINE
  8
0
 10
8.280
 20
0.805
 11
8.370
 21
-0.815
  0
LINE
  8
0
 10
8.460
 20
0.815
 11
8.550
 21
-0.805
  0
ARC
  8
0
 10
8.460
 20
-0.810
 40
0.090
 50
-176.820
 51
3.180
  0
LINE
  8
0
 10
8.460
 20
0.815
 11
8.460
 21
0.812
  0
LINE
  8
0
 10
8.550
 20
-0.815
 11
8.550
 21
-0.812
  0
ARC
  8
0
 10
8.550
 20
0.810
 40
0.090
 50
3.180
 51
-176.820
  0
LINE
  8
0
 10
8.460
 20
0.805
 11
8.550
 21
-0.815
  0
LINE
  8
0
 10
8.640
 20
0.815
 11
8.730
 21
-0.805
  0
ARC
  8
0
 10
8.640
 20
-0.810
 40
0.090
 50
-176.820
 51
3.180
  0
LINE
  8
0
 10
8.640
 20
0.815
 11
8.640
 21
0.812
  0
LINE
  8
0
 10
8.730
 20
-0.815
 11
8.730
 21
-0.812
  0
ARC
  8
0
 10
8.730
 20
0.810
 40
0.090
 50
3.180
 51
-176.820
  0
LINE
  8
0
 10
8.640
 20
0.805
 11
8.730
 21
-0.815
  0
LINE
  8
0
 10
8.820
 20
0.815
 11
8.910
 21
-0.805
  0
ARC
  8
0
 10
8.820
 20
-0.810
 40
0.090
 50
-176.820
 51
3.180
  0
LINE
  8
0
 10
8.820
 20
0.815
 11
8.820
 21
0.812
  0
LINE
  8
0
 10
8.910
 20
-0.815
 11
8.910
 21
-0.812
  0
ARC
  8
0
 10
8.910
 20
0.810
 40
0.090
 50
3.180
 51
-176.820
  0
LINE
  8
0
 10
8.820
 20
0.805
 11
8.910
 21
-0.815
  0
LINE
  8
0
 10
9.000
 20
0.815
 11
9.090
 21
-0.805
  0
ARC
  8
0
 10
9.000
 20
-0.810
 40
0.090
 50
-176.820
 51
3.180
  0
LINE
  8
0
 10
9.000
 20
0.815
 11
9.000
 21
0.812
  0
LINE
  8
0
 10
9.090
 20
-0.815
 11
9.090
 21
-0.812
  0
ARC
  8
0
 10
9.090
 20
0.810
 40
0.090
 50
3.180
 51
-176.820
  0
LINE
  8
0
 10
9.000
 20
0.805
 11
9.090
 21
-0.815
  0
LINE
  8
0
 10
9.180
 20
0.815
 11
9.270
 21
-0.805
  0
ARC
  8
0
 10
9.180
 20
-0.810
 40
0.090
 50
-176.820
 51
3.180
  0
LINE
  8
0
 10
9.180
 20
0.815
 11
9.180
 21
0.812
  0
LINE
  8
0
 10
9.270
 20
-0.815
 11
9.270
 21
-0.812
  0
ARC
  8
0
 10
9.270
 20
0.810
 40
0.090
 50
3.180
 51
-176.820
  0
LINE
  8
0
 10
9.180
 20
0.805
 11
9.270
 21
-0.815
  0
LINE
  8
0
 10
9.360
 20
0.815
 11
9.450
 21
-0.805
  0
ARC
  8
0
 10
9.360
 20
-0.810
 40
0.090
 50
-176.820
 51
3.180
  0
LINE
  8
0
 10
9.360
 20
0.815
 11
9.360
 21
0.812
  0
LINE
  8
0
 10
9.450
 20
-0.815
 11
9.450
 21
-0.812
  0
ARC
  8
0
 10
9.450
 20
0.810
 40
0.090
 50
3.180
 51
-176.820
  0
LINE
  8
0
 10
9.360
 20
0.805
 11
9.450
 21
-0.815
  0
LINE
  8
0
 10
9.540
 20
0.815
 11
9.630
 21
-0.805
  0
ARC
  8
0
 10
9.540
 20
-0.810
 40
0.090
 50
-176.820
 51
3.180
  0
LINE
  8
0
 10
9.540
 20
0.815
 11
9.540
 21
0.812
  0
LINE
  8
0
 10
9.630
 20
-0.815
 11
9.630
 21
-0.812
  0
ARC
  8
0
 10
9.630
 20
0.810
 40
0.090
 50
3.180
 51
-176.820
  0
LINE
  8
0
 10
9.540
 20
0.805
 11
9.630
 21
-0.815
  0
LINE
  8
0
 10
9.720
 20
0.815
 11
9.810
 21
-0.805
  0
ARC
  8
0
 10
9.720
 20
-0.810
 40
0.090
 50
-176.820
 51
3.180
  0
LINE
  8
0
 10
9.720
 20
0.815
 11
9.720
 21
0.812
  0
LINE
  8
0
 10
9.810
 20
-0.815
 11
9.810
 21
-0.812
  0
ARC
  8
0
 10
9.810
 20
0.810
 40
0.090
 50
3.180
 51
-176.820
  0
LINE
  8
0
 10
9.720
 20
0.805
 11
9.810
 21
-0.815
  0
LINE
  8
0
 10
9.900
 20
0.815
 11
9.990
 21
-0.805
  0
ARC
  8
0
 10
9.900
 20
-0.810
 40
0.090
 50
-176.820
 51
3.180
  0
LINE
  8
0
 10
9.900
 20
0.815
 11
9.900
 21
0.812
  0
LINE
  8
0
 10
9.990
 20
-0.815
 11
9.990
 21
-0.812
  0
ARC
  8
0
 10
9.990
 20
0.810
 40
0.090
 50
3.180
 51
-176.820
  0
LINE
  8
0
 10
9.900
 20
0.805
 11
9.990
 21
-0.815
  0
LINE
  8
0
 10
10.080
 20
0.815
 11
10.170
 21
-0.805
  0
ARC
  8
0
 10
10.080
 20
-0.810
 40
0.090
 50
-176.820
 51
3.180
  0
LINE
  8
0
 10
10.080
 20
0.815
 11
10.080
 21
0.812
  0
LINE
  8
0
 10
10.170
 20
-0.815
 11
10.170
 21
-0.812
  0
ARC
  8
0
 10
10.170
 20
0.810
 40
0.090
 50
3.180
 51
-176.820
  0
LINE
  8
0
 10
10.080
 20
0.805
 11
10.170
 21
-0.815
  0
LINE
  8
0
 10
10.260
 20
0.815
 11
10.350
 21
-0.805
  0
ARC
  8
0
 10
10.260
 20
-0.810
 40
0.090
 50
-176.820
 51
3.180
  0
LINE
  8
0
 10
10.260
 20
0.815
 11
10.260
 21
0.812
  0
LINE
  8
0
 10
10.350
 20
-0.815
 11
10.350
 21
-0.812
  0
ARC
  8
0
 10
10.350
 20
0.810
 40
0.090
 50
3.180
 51
-176.820
  0
LINE
  8
0
 10
10.260
 20
0.805
 11
10.350
 21
-0.815
  0
LINE
  8
0
 10
10.440
 20
0.815
 11
10.530
 21
-0.805
  0
ARC
  8
0
 10
10.440
 20
-0.810
 40
0.090
 50
-176.820
 51
3.180
  0
LINE
  8
0
 10
10.440
 20
0.815
 11
10.440
 21
0.812
  0
LINE
  8
0
 10
10.530
 20
-0.815
 11
10.530
 21
-0.812
  0
ARC
  8
0
 10
10.530
 20
0.810
 40
0.090
 50
3.180
 51
-176.820
  0
LINE
  8
0
 10
10.440
 20
0.805
 11
10.530
 21
-0.815
  0
LINE
  8
0
 10
10.620
 20
0.815
 11
10.710
 21
-0.805
  0
ARC
  8
0
 10
10.620
 20
-0.810
 40
0.090
 50
-176.820
 51
3.180
  0
LINE
  8
0
 10
10.620
 20
0.815
 11
10.620
 21
0.812
  0
LINE
  8
0
 10
10.710
 20
-0.815
 11
10.710
 21
-0.812
  0
ARC
  8
0
 10
10.710
 20
0.810
 40
0.090
 50
3.180
 51
-176.820
  0
LINE
  8
0
 10
10.620
 20
0.805
 11
10.710
 21
-0.815
  0
LINE
  8
0
 10
10.800
 20
0.815
 11
10.890
 21
-0.805
  0
ARC
  8
0
 10
10.800
 20
-0.810
 40
0.090
 50
-176.820
 51
3.180
  0
LINE
  8
0
 10
10.800
 20
0.815
 11
10.800
 21
0.812
  0
LINE
  8
0
 10
10.890
 20
-0.815
 11
10.890
 21
-0.812
  0
ARC
  8
0
 10
10.890
 20
0.810
 40
0.090
 50
3.180
 51
-176.820
  0
LINE
  8
0
 10
10.800
 20
0.805
 11
10.890
 21
-0.815
  0
LINE
  8
0
 10
10.980
 20
0.815
 11
11.070
 21
-0.805
  0
ARC
  8
0
 10
10.980
 20
-0.810
 40
0.090
 50
-176.820
 51
3.180
  0
LINE
  8
0
 10
10.980
 20
0.815
 11
10.980
 21
0.812
  0
LINE
  8
0
 10
11.070
 20
-0.815
 11
11.070
 21
-0.812
  0
ARC
  8
0
 10
11.070
 20
0.810
 40
0.090
 50
3.180
 51
-176.820
  0
LINE
  8
0
 10
10.980
 20
0.805
 11
11.070
 21
-0.815
  0
LINE
  8
0
 10
11.160
 20
0.815
 11
11.250
 21
-0.805
  0
ARC
  8
0
 10
11.160
 20
-0.810
 40
0.090
 50
-176.820
 51
3.180
  0
LINE
  8
0
 10
11.160
 20
0.815
 11
11.160
 21
0.812
  0
LINE
  8
0
 10
11.250
 20
-0.815
 11
11.250
 21
-0.812
  0
ARC
  8
0
 10
11.250
 20
0.810
 40
0.090
 50
3.180
 51
-176.820
  0
LINE
  8
0
 10
11.160
 20
0.805
 11
11.250
 21
-0.815
  0
LINE
  8
0
 10
11.340
 20
0.815
 11
11.430
 21
-0.805
  0
ARC
  8
0
 10
11.340
 20
-0.810
 40
0.090
 50
-176.820
 51
3.180
  0
LINE
  8
0
 10
11.340
 20
0.815
 11
11.340
 21
0.812
  0
LINE
  8
0
 10
11.430
 20
-0.815
 11
11.430
 21
-0.812
  0
ARC
  8
0
 10
11.430
 20
0.810
 40
0.090
 50
3.180
 51
-176.820
  0
LINE
  8
0
 10
11.340
 20
0.805
 11
11.430
 21
-0.815
  0
LINE
  8
0
 10
11.520
 20
0.815
 11
11.610
 21
-0.805
  0
ARC
  8
0
 10
11.520
 20
-0.810
 40
0.090
 50
-176.820
 51
3.180
  0
LINE
  8
0
 10
11.520
 20
0.815
 11
11.520
 21
0.812
  0
LINE
  8
0
 10
11.610
 20
-0.815
 11
11.610
 21
-0.812
  0
ARC
  8
0
 10
11.610
 20
0.810
 40
0.090
 50
3.180
 51
-176.820
  0
LINE
  8
0
 10
11.520
 20
0.805
 11
11.610
 21
-0.815
  0
LINE
  8
0
 10
11.700
 20
0.815
 11
11.790
 21
-0.805
  0
ARC
  8
0
 10
11.700
 20
-0.810
 40
0.090
 50
-176.820
 51
3.180
  0
LINE
  8
0
 10
11.700
 20
0.815
 11
11.700
 21
0.812
  0
LINE
  8
0
 10
11.790
 20
-0.815
 11
11.790
 21
-0.812
  0
ARC
  8
0
 10
11.790
 20
0.810
 40
0.090
 50
3.180
 51
-176.820
  0
LINE
  8
0
 10
11.700
 20
0.805
 11
11.790
 21
-0.815
  0
LINE
  8
0
 10
11.880
 20
0.815
 11
11.970
 21
-0.805
  0
ARC
  8
0
 10
11.880
 20
-0.810
 40
0.090
 50
-176.820
 51
3.180
  0
LINE
  8
0
 10
11.880
 20
0.815
 11
11.880
 21
0.812
  0
LINE
  8
0
 10
11.970
 20
-0.815
 11
11.970
 21
-0.812
  0
ARC
  8
0
 10
11.970
 20
0.810
 40
0.090
 50
3.180
 51
-176.820
  0
LINE
  8
0
 10
11.880
 20
0.805
 11
11.970
 21
-0.815
  0
LINE
  8
0
 10
12.060
 20
0.815
 11
12.150
 21
-0.805
  0
ARC
  8
0
 10
12.060
 20
-0.810
 40
0.090
 50
-176.820
 51
3.180
  0
LINE
  8
0
 10
12.060
 20
0.815
 11
12.060
 21
0.812
  0
LINE
  8
0
 10
12.150
 20
-0.815
 11
12.150
 21
-0.812
  0
ARC
  8
0
 10
12.150
 20
0.810
 40
0.090
 50
3.180
 51
-176.820
  0
LINE
  8
0
 10
12.060
 20
0.805
 11
12.150
 21
-0.815
  0
LINE
  8
0
 10
12.240
 20
0.815
 11
12.330
 21
-0.805
  0
ARC
  8
0
 10
12.240
 20
-0.810
 40
0.090
 50
-176.820
 51
3.180
  0
LINE
  8
0
 10
12.240
 20
0.815
 11
12.240
 21
0.812
  0
LINE
  8
0
 10
12.330
 20
-0.815
 11
12.330
 21
-0.812
  0
ARC
  8
0
 10
12.330
 20
0.810
 40
0.090
 50
3.180
 51
-176.820
  0
LINE
  8
0
 10
12.240
 20
0.805
 11
12.330
 21
-0.815
  0
LINE
  8
0
 10
12.420
 20
0.815
 11
12.510
 21
-0.805
  0
ARC
  8
0
 10
12.420
 20
-0.810
 40
0.090
 50
-176.820
 51
3.180
  0
LINE
  8
0
 10
12.420
 20
0.815
 11
12.420
 21
0.812
  0
LINE
  8
0
 10
12.510
 20
-0.815
 11
12.510
 21
-0.812
  0
ARC
  8
0
 10
12.510
 20
0.810
 40
0.090
 50
3.180
 51
-176.820
  0
LINE
  8
0
 10
12.420
 20
0.805
 11
12.510
 21
-0.815
  0
LINE
  8
0
 10
12.600
 20
0.815
 11
12.690
 21
-0.805
  0
ARC
  8
0
 10
12.600
 20
-0.810
 40
0.090
 50
-176.820
 51
3.180
  0
LINE
  8
0
 10
12.600
 20
0.815
 11
12.600
 21
0.812
  0
LINE
  8
0
 10
12.690
 20
-0.815
 11
12.690
 21
-0.812
  0
ARC
  8
0
 10
12.690
 20
0.810
 40
0.090
 50
3.180
 51
-176.820
  0
LINE
  8
0
 10
12.600
 20
0.805
 11
12.690
 21
-0.815
  0
LINE
  8
0
 10
12.780
 20
0.815
 11
12.870
 21
-0.805
  0
ARC
  8
0
 10
12.780
 20
-0.810
 40
0.090
 50
-176.820
 51
3.180
  0
LINE
  8
0
 10
12.780
 20
0.815
 11
12.780
 21
0.812
  0
LINE
  8
0
 10
12.870
 20
-0.815
 11
12.870
 21
-0.812
  0
ARC
  8
0
 10
12.870
 20
0.810
 40
0.090
 50
3.180
 51
-176.820
  0
LINE
  8
0
 10
12.780
 20
0.805
 11
12.870
 21
-0.815
  0
LINE
  8
0
 10
12.960
 20
0.815
 11
13.050
 21
-0.805
  0
ARC
  8
0
 10
12.960
 20
-0.810
 40
0.090
 50
-176.820
 51
3.180
  0
LINE
  8
0
 10
12.960
 20
0.815
 11
12.960
 21
0.812
  0
LINE
  8
0
 10
13.050
 20
-0.815
 11
13.050
 21
-0.812
  0
ARC
  8
0
 10
13.050
 20
0.810
 40
0.090
 50
3.180
 51
-176.820
  0
LINE
  8
0
 10
12.960
 20
0.805
 11
13.050
 21
-0.815
  0
LINE
  8
0
 10
13.140
 20
0.815
 11
13.230
 21
-0.805
  0
ARC
  8
0
 10
13.140
 20
-0.810
 40
0.090
 50
-176.820
 51
3.180
  0
LINE
  8
0
 10
13.140
 20
0.815
 11
13.140
 21
0.812
  0
LINE
  8
0
 10
13.230
 20
-0.815
 11
13.230
 21
-0.812
  0
ARC
  8
0
 10
13.230
 20
0.810
 40
0.090
 50
3.180
 51
-176.820
  0
LINE
  8
0
 10
13.140
 20
0.805
 11
13.230
 21
-0.815
  0
LINE
  8
0
 10
13.320
 20
0.815
 11
13.410
 21
-0.805
  0
ARC
  8
0
 10
13.320
 20
-0.810
 40
0.090
 50
-176.820
 51
3.180
  0
LINE
  8
0
 10
13.320
 20
0.815
 11
13.320
 21
0.812
  0
LINE
  8
0
 10
13.410
 20
-0.815
 11
13.410
 21
-0.812
  0
ARC
  8
0
 10
13.410
 20
0.810
 40
0.090
 50
3.180
 51
-176.820
  0
LINE
  8
0
 10
13.320
 20
0.805
 11
13.410
 21
-0.815
  0
LINE
  8
0
 10
13.500
 20
0.815
 11
13.590
 21
-0.805
  0
ARC
  8
0
 10
13.500
 20
-0.810
 40
0.090
 50
-176.820
 51
3.180
  0
LINE
  8
0
 10
13.500
 20
0.815
 11
13.500
 21
0.812
  0
LINE
  8
0
 10
13.590
 20
-0.815
 11
13.590
 21
-0.812
  0
ARC
  8
0
 10
13.590
 20
0.810
 40
0.090
 50
3.180
 51
-176.820
  0
LINE
  8
0
 10
13.500
 20
0.805
 11
13.590
 21
-0.815
  0
LINE
  8
0
 10
13.680
 20
0.815
 11
13.770
 21
-0.805
  0
ARC
  8
0
 10
13.680
 20
-0.810
 40
0.090
 50
-176.820
 51
3.180
  0
LINE
  8
0
 10
13.680
 20
0.815
 11
13.680
 21
0.812
  0
LINE
  8
0
 10
13.770
 20
-0.815
 11
13.770
 21
-0.812
  0
ARC
  8
0
 10
13.770
 20
0.810
 40
0.090
 50
3.180
 51
-176.820
  0
LINE
  8
0
 10
13.680
 20
0.805
 11
13.770
 21
-0.815
  0
LINE
  8
0
 10
13.860
 20
0.815
 11
13.950
 21
-0.805
  0
ARC
  8
0
 10
13.860
 20
-0.810
 40
0.090
 50
-176.820
 51
3.180
  0
LINE
  8
0
 10
13.860
 20
0.815
 11
13.860
 21
0.812
  0
LINE
  8
0
 10
13.950
 20
-0.815
 11
13.950
 21
-0.812
  0
ARC
  8
0
 10
13.950
 20
0.810
 40
0.090
 50
3.180
 51
-176.820
  0
LINE
  8
0
 10
13.860
 20
0.805
 11
13.950
 21
-0.815
  0
LINE
  8
0
 10
14.040
 20
0.815
 11
14.130
 21
-0.805
  0
ARC
  8
0
 10
14.040
 20
-0.810
 40
0.090
 50
-176.820
 51
3.180
  0
LINE
  8
0
 10
14.040
 20
0.815
 11
14.040
 21
0.812
  0
LINE
  8
0
 10
14.130
 20
-0.815
 11
14.130
 21
-0.812
  0
ARC
  8
0
 10
14.130
 20
0.810
 40
0.090
 50
3.180
 51
-176.820
  0
LINE
  8
0
 10
14.040
 20
0.805
 11
14.119
 21
-0.612
  0
LINE
  8
0
 10
14.220
 20
0.815
 11
14.299
 21
-0.603
  0
ARC
  8
0
 10
14.209
 20
-0.608
 40
0.090
 50
-176.820
 51
3.180
  0
LINE
  8
0
 10
14.299
 20
-0.609
 11
14.310
 21
0.013
  0
ARC
  8
0
 10
15.030
 20
0.000
 40
0.720
 50
-112.500
 51
178.952
  0
ARC
  8
0
 10
15.030
 20
0.000
 40
0.900
 50
-112.500
 51
151.233
  0
LINE
  8
0
 10
14.686
 20
-0.831
 11
14.754
 21
-0.665
  0
ENDSEC
  0
EOF
