  0
SECTION
  2
ENTITIES
  0
ARC
  8
0
 10
0.700
 20
0.000
 40
0.700
 50
67.500
 51
-1.177
  0
ARC
  8
0
 10
0.700
 20
0.000
 40
0.900
 50
67.500
 51
-30.171
  0
LINE
  8
0
 10
0.968
 20
0.647
 11
1.044
 21
0.831
  0
LINE
  8
0
 10
1.400
 20
-0.014
 11
1.413
 21
0.602
  0
ARC
  8
0
 10
1.513
 20
0.600
 40
0.100
 50
3.576
 51
-176.424
  0
LINE
  8
0
 10
1.413
 20
0.594
 11
1.500
 21
-0.806
  0
LINE
  8
0
 10
1.612
 20
0.606
 11
1.700
 21
-0.794
  0
ARC
  8
0
 10
1.600
 20
-0.800
 40
0.100
 50
-176.424
 51
3.576
  0
LINE
  8
0
 10
1.600
 20
0.806
 11
1.600
 21
0.803
  0
LINE
  8
0
 10
1.700
 20
-0.806
 11
1.700
 21
-0.803
  0
ARC
  8
0
 10
1.700
 20
0.800
 40
0.100
 50
3.576
 51
-176.424
  0
LINE
  8
0
 10
1.600
 20
0.794
 11
1.700
 21
-0.806
  0
LINE
  8
0
 10
1.800
 20
0.806
 11
1.900
 21
-0.794
  0
ARC
  8
0
 10
1.800
 20
-0.800
 40
0.100
 50
-176.424
 51
3.576
  0
LINE
  8
0
 10
1.800
 20
0.806
 11
1.800
 21
0.803
  0
LINE
  8
0
 10
1.900
 20
-0.806
 11
1.900
 21
-0.803
  0
ARC
  8
0
 10
1.900
 20
0.800
 40
0.100
 50
3.576
 51
-176.424
  0
LINE
  8
0
 10
1.800
 20
0.794
 11
1.900
 21
-0.806
  0
LINE
  8
0
 10
2.000
 20
0.806
 11
2.100
 21
-0.794
  0
ARC
  8
0
 10
2.000
 20
-0.800
 40
0.100
 50
-176.424
 51
3.576
  0
LINE
  8
0
 10
2.000
 20
0.806
 11
2.000
 21
0.803
  0
LINE
  8
0
 10
2.100
 20
-0.806
 11
2.100
 21
-0.803
  0
ARC
  8
0
 10
2.100
 20
0.800
 40
0.100
 50
3.576
 51
-176.424
  0
LINE
  8
0
 10
2.000
 20
0.794
 11
2.100
 21
-0.806
  0
LINE
  8
0
 10
2.200
 20
0.806
 11
2.300
 21
-0.794
  0
ARC
  8
0
 10
2.200
 20
-0.800
 40
0.100
 50
-176.424
 51
3.576
  0
LINE
  8
0
 10
2.200
 20
0.806
 11
2.200
 21
0.803
  0
LINE
  8
0
 10
2.300
 20
-0.806
 11
2.300
 21
-0.803
  0
ARC
  8
0
 10
2.300
 20
0.800
 40
0.100
 50
3.576
 51
-176.424
  0
LINE
  8
0
 10
2.200
 20
0.794
 11
2.300
 21
-0.806
  0
LINE
  8
0
 10
2.400
 20
0.806
 11
2.500
 21
-0.794
  0
ARC
  8
0
 10
2.400
 20
-0.800
 40
0.100
 50
-176.424
 51
3.576
  0
LINE
  8
0
 10
2.400
 20
0.806
 11
2.400
 21
0.803
  0
LINE
  8
0
 10
2.500
 20
-0.806
 11
2.500
 21
-0.803
  0
ARC
  8
0
 10
2.500
 20
0.800
 40
0.100
 50
3.576
 51
-176.424
  0
LINE
  8
0
 10
2.400
 20
0.794
 11
2.500
 21
-0.806
  0
LINE
  8
0
 10
2.600
 20
0.806
 11
2.700
 21
-0.794
  0
ARC
  8
0
 10
2.600
 20
-0.800
 40
0.100
 50
-176.424
 51
3.576
  0
LINE
  8
0
 10
2.600
 20
0.806
 11
2.600
 21
0.803
  0
LINE
  8
0
 10
2.700
 20
-0.806
 11
2.700
 21
-0.803
  0
ARC
  8
0
 10
2.700
 20
0.800
 40
0.100
 50
3.576
 51
-176.424
  0
LINE
  8
0
 10
2.600
 20
0.794
 11
2.700
 21
-0.806
  0
LINE
  8
0
 10
2.800
 20
0.806
 11
2.900
 21
-0.794
  0
ARC
  8
0
 10
2.800
 20
-0.800
 40
0.100
 50
-176.424
 51
3.576
  0
LINE
  8
0
 10
2.800
 20
0.806
 11
2.800
 21
0.803
  0
LINE
  8
0
 10
2.900
 20
-0.806
 11
2.900
 21
-0.803
  0
ARC
  8
0
 10
2.900
 20
0.800
 40
0.100
 50
3.576
 51
-176.424
  0
LINE
  8
0
 10
2.800
 20
0.794
 11
2.900
 21
-0.806
  0
LINE
  8
0
 10
3.000
 20
0.806
 11
3.100
 21
-0.794
  0
ARC
  8
0
 10
3.000
 20
-0.800
 40
0.100
 50
-176.424
 51
3.576
  0
LINE
  8
0
 10
3.000
 20
0.806
 11
3.000
 21
0.803
  0
LINE
  8
0
 10
3.100
 20
-0.806
 11
3.100
 21
-0.803
  0
ARC
  8
0
 10
3.100
 20
0.800
 40
0.100
 50
3.576
 51
-176.424
  0
LINE
  8
0
 10
3.000
 20
0.794
 11
3.100
 21
-0.806
  0
LINE
  8
0
 10
3.200
 20
0.806
 11
3.300
 21
-0.794
  0
ARC
  8
0
 10
3.200
 20
-0.800
 40
0.100
 50
-176.424
 51
3.576
  0
LINE
  8
0
 10
3.200
 20
0.806
 11
3.200
 21
0.803
  0
LINE
  8
0
 10
3.300
 20
-0.806
 11
3.300
 21
-0.803
  0
ARC
  8
0
 10
3.300
 20
0.800
 40
0.100
 50
3.576
 51
-176.424
  0
LINE
  8
0
 10
3.200
 20
0.794
 11
3.300
 21
-0.806
  0
LINE
  8
0
 10
3.400
 20
0.806
 11
3.500
 21
-0.794
  0
ARC
  8
0
 10
3.400
 20
-0.800
 40
0.100
 50
-176.424
 51
3.576
  0
LINE
  8
0
 10
3.400
 20
0.806
 11
3.400
 21
0.803
  0
LINE
  8
0
 10
3.500
 20
-0.806
 11
3.500
 21
-0.803
  0
ARC
  8
0
 10
3.500
 20
0.800
 40
0.100
 50
3.576
 51
-176.424
  0
LINE
  8
0
 10
3.400
 20
0.794
 11
3.500
 21
-0.806
  0
LINE
  8
0
 10
3.600
 20
0.806
 11
3.700
 21
-0.794
  0
ARC
  8
0
 10
3.600
 20
-0.800
 40
0.100
 50
-176.424
 51
3.576
  0
LINE
  8
0
 10
3.600
 20
0.806
 11
3.600
 21
0.803
  0
LINE
  8
0
 10
3.700
 20
-0.806
 11
3.700
 21
-0.803
  0
ARC
  8
0
 10
3.700
 20
0.800
 40
0.100
 50
3.576
 51
-176.424
  0
LINE
  8
0
 10
3.600
 20
0.794
 11
3.700
 21
-0.806
  0
LINE
  8
0
 10
3.800
 20
0.806
 11
3.900
 21
-0.794
  0
ARC
  8
0
 10
3.800
 20
-0.800
 40
0.100
 50
-176.424
 51
3.576
  0
LINE
  8
0
 10
3.800
 20
0.806
 11
3.800
 21
0.803
  0
LINE
  8
0
 10
3.900
 20
-0.806
 11
3.900
 21
-0.803
  0
ARC
  8
0
 10
3.900
 20
0.800
 40
0.100
 50
3.576
 51
-176.424
  0
LINE
  8
0
 10
3.800
 20
0.794
 11
3.900
 21
-0.806
  0
LINE
  8
0
 10
4.000
 20
0.806
 11
4.100
 21
-0.794
  0
ARC
  8
0
 10
4.000
 20
-0.800
 40
0.100
 50
-176.424
 51
3.576
  0
LINE
  8
0
 10
4.000
 20
0.806
 11
4.000
 21
0.803
  0
LINE
  8
0
 10
4.100
 20
-0.806
 11
4.100
 21
-0.803
  0
ARC
  8
0
 10
4.100
 20
0.800
 40
0.100
 50
3.576
 51
-176.424
  0
LINE
  8
0
 10
4.000
 20
0.794
 11
4.100
 21
-0.806
  0
LINE
  8
0
 10
4.200
 20
0.806
 11
4.300
 21
-0.794
  0
ARC
  8
0
 10
4.200
 20
-0.800
 40
0.100
 50
-176.424
 51
3.576
  0
LINE
  8
0
 10
4.200
 20
0.806
 11
4.200
 21
0.803
  0
LINE
  8
0
 10
4.300
 20
-0.806
 11
4.300
 21
-0.803
  0
ARC
  8
0
 10
4.300
 20
0.800
 40
0.100
 50
3.576
 51
-176.424
  0
LINE
  8
0
 10
4.200
 20
0.794
 11
4.300
 21
-0.806
  0
LINE
  8
0
 10
4.400
 20
0.806
 11
4.500
 21
-0.794
  0
ARC
  8
0
 10
4.400
 20
-0.800
 40
0.100
 50
-176.424
 51
3.576
  0
LINE
  8
0
 10
4.400
 20
0.806
 11
4.400
 21
0.803
  0
LINE
  8
0
 10
4.500
 20
-0.806
 11
4.500
 21
-0.803
  0
ARC
  8
0
 10
4.500
 20
0.800
 40
0.100
 50
3.576
 51
-176.424
  0
LINE
  8
0
 10
4.400
 20
0.794
 11
4.500
 21
-0.806
  0
LINE
  8
0
 10
4.600
 20
0.806
 11
4.700
 21
-0.794
  0
ARC
  8
0
 10
4.600
 20
-0.800
 40
0.100
 50
-176.424
 51
3.576
  0
LINE
  8
0
 10
4.600
 20
0.806
 11
4.600
 21
0.803
  0
LINE
  8
0
 10
4.700
 20
-0.806
 11
4.700
 21
-0.803
  0
ARC
  8
0
 10
4.700
 20
0.800
 40
0.100
 50
3.576
 51
-176.424
  0
LINE
  8
0
 10
4.600
 20
0.794
 11
4.700
 21
-0.806
  0
LINE
  8
0
 10
4.800
 20
0.806
 11
4.900
 21
-0.794
  0
ARC
  8
0
 10
4.800
 20
-0.800
 40
0.100
 50
-176.424
 51
3.576
  0
LINE
  8
0
 10
4.800
 20
0.806
 11
4.800
 21
0.803
  0
LINE
  8
0
 10
4.900
 20
-0.806
 11
4.900
 21
-0.803
  0
ARC
  8
0
 10
4.900
 20
0.800
 40
0.100
 50
3.576
 51
-176.424
  0
LINE
  8
0
 10
4.800
 20
0.794
 11
4.900
 21
-0.806
  0
LINE
  8
0
 10
5.000
 20
0.806
 11
5.100
 21
-0.794
  0
ARC
  8
0
 10
5.000
 20
-0.800
 40
0.100
 50
-176.424
 51
3.576
  0
LINE
  8
0
 10
5.000
 20
0.806
 11
5.000
 21
0.803
  0
LINE
  8
0
 10
5.100
 20
-0.806
 11
5.100
 21
-0.803
  0
ARC
  8
0
 10
5.100
 20
0.800
 40
0.100
 50
3.576
 51
-176.424
  0
LINE
  8
0
 10
5.000
 20
0.794
 11
5.100
 21
-0.806
  0
LINE
  8
0
 10
5.200
 20
0.806
 11
5.300
 21
-0.794
  0
ARC
  8
0
 10
5.200
 20
-0.800
 40
0.100
 50
-176.424
 51
3.576
  0
LINE
  8
0
 10
5.200
 20
0.806
 11
5.200
 21
0.803
  0
LINE
  8
0
 10
5.300
 20
-0.806
 11
5.300
 21
-0.803
  0
ARC
  8
0
 10
5.300
 20
0.800
 40
0.100
 50
3.576
 51
-176.424
  0
LINE
  8
0
 10
5.200
 20
0.794
 11
5.300
 21
-0.806
  0
LINE
  8
0
 10
5.400
 20
0.806
 11
5.500
 21
-0.794
  0
ARC
  8
0
 10
5.400
 20
-0.800
 40
0.100
 50
-176.424
 51
3.576
  0
LINE
  8
0
 10
5.400
 20
0.806
 11
5.400
 21
0.803
  0
LINE
  8
0
 10
5.500
 20
-0.806
 11
5.500
 21
-0.803
  0
ARC
  8
0
 10
5.500
 20
0.800
 40
0.100
 50
3.576
 51
-176.424
  0
LINE
  8
0
 10
5.400
 20
0.794
 11
5.500
 21
-0.806
  0
LINE
  8
0
 10
5.600
 20
0.806
 11
5.700
 21
-0.794
  0
ARC
  8
0
 10
5.600
 20
-0.800
 40
0.100
 50
-176.424
 51
3.576
  0
LINE
  8
0
 10
5.600
 20
0.806
 11
5.600
 21
0.803
  0
LINE
  8
0
 10
5.700
 20
-0.806
 11
5.700
 21
-0.803
  0
ARC
  8
0
 10
5.700
 20
0.800
 40
0.100
 50
3.576
 51
-176.424
  0
LINE
  8
0
 10
5.600
 20
0.794
 11
5.700
 21
-0.806
  0
LINE
  8
0
 10
5.800
 20
0.806
 11
5.900
 21
-0.794
  0
ARC
  8
0
 10
5.800
 20
-0.800
 40
0.100
 50
-176.424
 51
3.576
  0
LINE
  8
0
 10
5.800
 20
0.806
 11
5.800
 21
0.803
  0
LINE
  8
0
 10
5.900
 20
-0.806
 11
5.900
 21
-0.803
  0
ARC
  8
0
 10
5.900
 20
0.800
 40
0.100
 50
3.576
 51
-176.424
  0
LINE
  8
0
 10
5.800
 20
0.794
 11
5.900
 21
-0.806
  0
LINE
  8
0
 10
6.000
 20
0.806
 11
6.100
 21
-0.794
  0
ARC
  8
0
 10
6.000
 20
-0.800
 40
0.100
 50
-176.424
 51
3.576
  0
LINE
  8
0
 10
6.000
 20
0.806
 11
6.000
 21
0.803
  0
LINE
  8
0
 10
6.100
 20
-0.806
 11
6.100
 21
-0.803
  0
ARC
  8
0
 10
6.100
 20
0.800
 40
0.100
 50
3.576
 51
-176.424
  0
LINE
  8
0
 10
6.000
 20
0.794
 11
6.100
 21
-0.806
  0
LINE
  8
0
 10
6.200
 20
0.806
 11
6.300
 21
-0.794
  0
ARC
  8
0
 10
6.200
 20
-0.800
 40
0.100
 50
-176.424
 51
3.576
  0
LINE
  8
0
 10
6.200
 20
0.806
 11
6.200
 21
0.803
  0
LINE
  8
0
 10
6.300
 20
-0.806
 11
6.300
 21
-0.803
  0
ARC
  8
0
 10
6.300
 20
0.800
 40
0.100
 50
3.576
 51
-176.424
  0
LINE
  8
0
 10
6.200
 20
0.794
 11
6.300
 21
-0.806
  0
LINE
  8
0
 10
6.400
 20
0.806
 11
6.500
 21
-0.794
  0
ARC
  8
0
 10
6.400
 20
-0.800
 40
0.100
 50
-176.424
 51
3.576
  0
LINE
  8
0
 10
6.400
 20
0.806
 11
6.400
 21
0.803
  0
LINE
  8
0
 10
6.500
 20
-0.806
 11
6.500
 21
-0.803
  0
ARC
  8
0
 10
6.500
 20
0.800
 40
0.100
 50
3.576
 51
-176.424
  0
LINE
  8
0
 10
6.400
 20
0.794
 11
6.500
 21
-0.806
  0
LINE
  8
0
 10
6.600
 20
0.806
 11
6.700
 21
-0.794
  0
ARC
  8
0
 10
6.600
 20
-0.800
 40
0.100
 50
-176.424
 51
3.576
  0
LINE
  8
0
 10
6.600
 20
0.806
 11
6.600
 21
0.803
  0
LINE
  8
0
 10
6.700
 20
-0.806
 11
6.700
 21
-0.803
  0
ARC
  8
0
 10
6.700
 20
0.800
 40
0.100
 50
3.576
 51
-176.424
  0
LINE
  8
0
 10
6.600
 20
0.794
 11
6.700
 21
-0.806
  0
LINE
  8
0
 10
6.800
 20
0.806
 11
6.900
 21
-0.794
  0
ARC
  8
0
 10
6.800
 20
-0.800
 40
0.100
 50
-176.424
 51
3.576
  0
LINE
  8
0
 10
6.800
 20
0.806
 11
6.800
 21
0.803
  0
LINE
  8
0
 10
6.900
 20
-0.806
 11
6.900
 21
-0.803
  0
ARC
  8
0
 10
6.900
 20
0.800
 40
0.100
 50
3.576
 51
-176.424
  0
LINE
  8
0
 10
6.800
 20
0.794
 11
6.900
 21
-0.806
  0
LINE
  8
0
 10
7.000
 20
0.806
 11
7.100
 21
-0.794
  0
ARC
  8
0
 10
7.000
 20
-0.800
 40
0.100
 50
-176.424
 51
3.576
  0
LINE
  8
0
 10
7.000
 20
0.806
 11
7.000
 21
0.803
  0
LINE
  8
0
 10
7.100
 20
-0.806
 11
7.100
 21
-0.803
  0
ARC
  8
0
 10
7.100
 20
0.800
 40
0.100
 50
3.576
 51
-176.424
  0
LINE
  8
0
 10
7.000
 20
0.794
 11
7.100
 21
-0.806
  0
LINE
  8
0
 10
7.200
 20
0.806
 11
7.300
 21
-0.794
  0
ARC
  8
0
 10
7.200
 20
-0.800
 40
0.100
 50
-176.424
 51
3.576
  0
LINE
  8
0
 10
7.200
 20
0.806
 11
7.200
 21
0.803
  0
LINE
  8
0
 10
7.300
 20
-0.806
 11
7.300
 21
-0.803
  0
ARC
  8
0
 10
7.300
 20
0.800
 40
0.100
 50
3.576
 51
-176.424
  0
LINE
  8
0
 10
7.200
 20
0.794
 11
7.300
 21
-0.806
  0
LINE
  8
0
 10
7.400
 20
0.806
 11
7.500
 21
-0.794
  0
ARC
  8
0
 10
7.400
 20
-0.800
 40
0.100
 50
-176.424
 51
3.576
  0
LINE
  8
0
 10
7.400
 20
0.806
 11
7.400
 21
0.803
  0
LINE
  8
0
 10
7.500
 20
-0.806
 11
7.500
 21
-0.803
  0
ARC
  8
0
 10
7.500
 20
0.800
 40
0.100
 50
3.576
 51
-176.424
  0
LINE
  8
0
 10
7.400
 20
0.794
 11
7.500
 21
-0.806
  0
LINE
  8
0
 10
7.600
 20
0.806
 11
7.700
 21
-0.794
  0
ARC
  8
0
 10
7.600
 20
-0.800
 40
0.100
 50
-176.424
 51
3.576
  0
LINE
  8
0
 10
7.600
 20
0.806
 11
7.600
 21
0.803
  0
LINE
  8
0
 10
7.700
 20
-0.806
 11
7.700
 21
-0.803
  0
ARC
  8
0
 10
7.700
 20
0.800
 40
0.100
 50
3.576
 51
-176.424
  0
LINE
  8
0
 10
7.600
 20
0.794
 11
7.700
 21
-0.806
  0
LINE
  8
0
 10
7.800
 20
0.806
 11
7.900
 21
-0.794
  0
ARC
  8
0
 10
7.800
 20
-0.800
 40
0.100
 50
-176.424
 51
3.576
  0
LINE
  8
0
 10
7.800
 20
0.806
 11
7.800
 21
0.803
  0
LINE
  8
0
 10
7.900
 20
-0.806
 11
7.900
 21
-0.803
  0
ARC
  8
0
 10
7.900
 20
0.800
 40
0.100
 50
3.576
 51
-176.424
  0
LINE
  8
0
 10
7.800
 20
0.794
 11
7.900
 21
-0.806
  0
LINE
  8
0
 10
8.000
 20
0.806
 11
8.100
 21
-0.794
  0
ARC
  8
0
 10
8.000
 20
-0.800
 40
0.100
 50
-176.424
 51
3.576
  0
LINE
  8
0
 10
8.000
 20
0.806
 11
8.000
 21
0.803
  0
LINE
  8
0
 10
8.100
 20
-0.806
 11
8.100
 21
-0.803
  0
ARC
  8
0
 10
8.100
 20
0.800
 40
0.100
 50
3.576
 51
-176.424
  0
LINE
  8
0
 10
8.000
 20
0.794
 11
8.100
 21
-0.806
  0
LINE
  8
0
 10
8.200
 20
0.806
 11
8.300
 21
-0.794
  0
ARC
  8
0
 10
8.200
 20
-0.800
 40
0.100
 50
-176.424
 51
3.576
  0
LINE
  8
0
 10
8.200
 20
0.806
 11
8.200
 21
0.803
  0
LINE
  8
0
 10
8.300
 20
-0.806
 11
8.300
 21
-0.803
  0
ARC
  8
0
 10
8.300
 20
0.800
 40
0.100
 50
3.576
 51
-176.424
  0
LINE
  8
0
 10
8.200
 20
0.794
 11
8.300
 21
-0.806
  0
LINE
  8
0
 10
8.400
 20
0.806
 11
8.500
 21
-0.794
  0
ARC
  8
0
 10
8.400
 20
-0.800
 40
0.100
 50
-176.424
 51
3.576
  0
LINE
  8
0
 10
8.400
 20
0.806
 11
8.400
 21
0.803
  0
LINE
  8
0
 10
8.500
 20
-0.806
 11
8.500
 21
-0.803
  0
ARC
  8
0
 10
8.500
 20
0.800
 40
0.100
 50
3.576
 51
-176.424
  0
LINE
  8
0
 10
8.400
 20
0.794
 11
8.500
 21
-0.806
  0
LINE
  8
0
 10
8.600
 20
0.806
 11
8.700
 21
-0.794
  0
ARC
  8
0
 10
8.600
 20
-0.800
 40
0.100
 50
-176.424
 51
3.576
  0
LINE
  8
0
 10
8.600
 20
0.806
 11
8.600
 21
0.803
  0
LINE
  8
0
 10
8.700
 20
-0.806
 11
8.700
 21
-0.803
  0
ARC
  8
0
 10
8.700
 20
0.800
 40
0.100
 50
3.576
 51
-176.424
  0
LINE
  8
0
 10
8.600
 20
0.794
 11
8.700
 21
-0.806
  0
LINE
  8
0
 10
8.800
 20
0.806
 11
8.900
 21
-0.794
  0
ARC
  8
0
 10
8.800
 20
-0.800
 40
0.100
 50
-176.424
 51
3.576
  0
LINE
  8
0
 10
8.800
 20
0.806
 11
8.800
 21
0.803
  0
LINE
  8
0
 10
8.900
 20
-0.806
 11
8.900
 21
-0.803
  0
ARC
  8
0
 10
8.900
 20
0.800
 40
0.100
 50
3.576
 51
-176.424
  0
LINE
  8
0
 10
8.800
 20
0.794
 11
8.900
 21
-0.806
  0
LINE
  8
0
 10
9.000
 20
0.806
 11
9.100
 21
-0.794
  0
ARC
  8
0
 10
9.000
 20
-0.800
 40
0.100
 50
-176.424
 51
3.576
  0
LINE
  8
0
 10
9.000
 20
0.806
 11
9.000
 21
0.803
  0
LINE
  8
0
 10
9.100
 20
-0.806
 11
9.100
 21
-0.803
  0
ARC
  8
0
 10
9.100
 20
0.800
 40
0.100
 50
3.576
 51
-176.424
  0
LINE
  8
0
 10
9.000
 20
0.794
 11
9.100
 21
-0.806
  0
LINE
  8
0
 10
9.200
 20
0.806
 11
9.300
 21
-0.794
  0
ARC
  8
0
 10
9.200
 20
-0.800
 40
0.100
 50
-176.424
 51
3.576
  0
LINE
  8
0
 10
9.200
 20
0.806
 11
9.200
 21
0.803
  0
LINE
  8
0
 10
9.300
 20
-0.806
 11
9.300
 21
-0.803
  0
ARC
  8
0
 10
9.300
 20
0.800
 40
0.100
 50
3.576
 51
-176.424
  0
LINE
  8
0
 10
9.200
 20
0.794
 11
9.300
 21
-0.806
  0
LINE
  8
0
 10
9.400
 20
0.806
 11
9.500
 21
-0.794
  0
ARC
  8
0
 10
9.400
 20
-0.800
 40
0.100
 50
-176.424
 51
3.576
  0
LINE
  8
0
 10
9.400
 20
0.806
 11
9.400
 21
0.803
  0
LINE
  8
0
 10
9.500
 20
-0.806
 11
9.500
 21
-0.803
  0
ARC
  8
0
 10
9.500
 20
0.800
 40
0.100
 50
3.576
 51
-176.424
  0
LINE
  8
0
 10
9.400
 20
0.794
 11
9.500
 21
-0.806
  0
LINE
  8
0
 10
9.600
 20
0.806
 11
9.700
 21
-0.794
  0
ARC
  8
0
 10
9.600
 20
-0.800
 40
0.100
 50
-176.424
 51
3.576
  0
LINE
  8
0
 10
9.600
 20
0.806
 11
9.600
 21
0.803
  0
LINE
  8
0
 10
9.700
 20
-0.806
 11
9.700
 21
-0.803
  0
ARC
  8
0
 10
9.700
 20
0.800
 40
0.100
 50
3.576
 51
-176.424
  0
LINE
  8
0
 10
9.600
 20
0.794
 11
9.700
 21
-0.806
  0
LINE
  8
0
 10
9.800
 20
0.806
 11
9.900
 21
-0.794
  0
ARC
  8
0
 10
9.800
 20
-0.800
 40
0.100
 50
-176.424
 51
3.576
  0
LINE
  8
0
 10
9.800
 20
0.806
 11
9.800
 21
0.803
  0
LINE
  8
0
 10
9.900
 20
-0.806
 11
9.900
 21
-0.803
  0
ARC
  8
0
 10
9.900
 20
0.800
 40
0.100
 50
3.576
 51
-176.424
  0
LINE
  8
0
 10
9.800
 20
0.794
 11
9.900
 21
-0.806
  0
LINE
  8
0
 10
10.000
 20
0.806
 11
10.100
 21
-0.794
  0
ARC
  8
0
 10
10.000
 20
-0.800
 40
0.100
 50
-176.424
 51
3.576
  0
LINE
  8
0
 10
10.000
 20
0.806
 11
10.000
 21
0.803
  0
LINE
  8
0
 10
10.100
 20
-0.806
 11
10.100
 21
-0.803
  0
ARC
  8
0
 10
10.100
 20
0.800
 40
0.100
 50
3.576
 51
-176.424
  0
LINE
  8
0
 10
10.000
 20
0.794
 11
10.100
 21
-0.806
  0
LINE
  8
0
 10
10.200
 20
0.806
 11
10.300
 21
-0.794
  0
ARC
  8
0
 10
10.200
 20
-0.800
 40
0.100
 50
-176.424
 51
3.576
  0
LINE
  8
0
 10
10.200
 20
0.806
 11
10.200
 21
0.803
  0
LINE
  8
0
 10
10.300
 20
-0.806
 11
10.300
 21
-0.803
  0
ARC
  8
0
 10
10.300
 20
0.800
 40
0.100
 50
3.576
 51
-176.424
  0
LINE
  8
0
 10
10.200
 20
0.794
 11
10.300
 21
-0.806
  0
LINE
  8
0
 10
10.400
 20
0.806
 11
10.500
 21
-0.794
  0
ARC
  8
0
 10
10.400
 20
-0.800
 40
0.100
 50
-176.424
 51
3.576
  0
LINE
  8
0
 10
10.400
 20
0.806
 11
10.400
 21
0.803
  0
LINE
  8
0
 10
10.500
 20
-0.806
 11
10.500
 21
-0.803
  0
ARC
  8
0
 10
10.500
 20
0.800
 40
0.100
 50
3.576
 51
-176.424
  0
LINE
  8
0
 10
10.400
 20
0.794
 11
10.500
 21
-0.806
  0
LINE
  8
0
 10
10.600
 20
0.806
 11
10.700
 21
-0.794
  0
ARC
  8
0
 10
10.600
 20
-0.800
 40
0.100
 50
-176.424
 51
3.576
  0
LINE
  8
0
 10
10.600
 20
0.806
 11
10.600
 21
0.803
  0
LINE
  8
0
 10
10.700
 20
-0.806
 11
10.700
 21
-0.803
  0
ARC
  8
0
 10
10.700
 20
0.800
 40
0.100
 50
3.576
 51
-176.424
  0
LINE
  8
0
 10
10.600
 20
0.794
 11
10.700
 21
-0.806
  0
LINE
  8
0
 10
10.800
 20
0.806
 11
10.900
 21
-0.794
  0
ARC
  8
0
 10
10.800
 20
-0.800
 40
0.100
 50
-176.424
 51
3.576
  0
LINE
  8
0
 10
10.800
 20
0.806
 11
10.800
 21
0.803
  0
LINE
  8
0
 10
10.900
 20
-0.806
 11
10.900
 21
-0.803
  0
ARC
  8
0
 10
10.900
 20
0.800
 40
0.100
 50
3.576
 51
-176.424
  0
LINE
  8
0
 10
10.800
 20
0.794
 11
10.900
 21
-0.806
  0
LINE
  8
0
 10
11.000
 20
0.806
 11
11.100
 21
-0.794
  0
ARC
  8
0
 10
11.000
 20
-0.800
 40
0.100
 50
-176.424
 51
3.576
  0
LINE
  8
0
 10
11.000
 20
0.806
 11
11.000
 21
0.803
  0
LINE
  8
0
 10
11.100
 20
-0.806
 11
11.100
 21
-0.803
  0
ARC
  8
0
 10
11.100
 20
0.800
 40
0.100
 50
3.576
 51
-176.424
  0
LINE
  8
0
 10
11.000
 20
0.794
 11
11.100
 21
-0.806
  0
LINE
  8
0
 10
11.200
 20
0.806
 11
11.300
 21
-0.794
  0
ARC
  8
0
 10
11.200
 20
-0.800
 40
0.100
 50
-176.424
 51
3.576
  0
LINE
  8
0
 10
11.200
 20
0.806
 11
11.200
 21
0.803
  0
LINE
  8
0
 10
11.300
 20
-0.806
 11
11.300
 21
-0.803
  0
ARC
  8
0
 10
11.300
 20
0.800
 40
0.100
 50
3.576
 51
-176.424
  0
LINE
  8
0
 10
11.200
 20
0.794
 11
11.300
 21
-0.806
  0
LINE
  8
0
 10
11.400
 20
0.806
 11
11.500
 21
-0.794
  0
ARC
  8
0
 10
11.400
 20
-0.800
 40
0.100
 50
-176.424
 51
3.576
  0
LINE
  8
0
 10
11.400
 20
0.806
 11
11.400
 21
0.803
  0
LINE
  8
0
 10
11.500
 20
-0.806
 11
11.500
 21
-0.803
  0
ARC
  8
0
 10
11.500
 20
0.800
 40
0.100
 50
3.576
 51
-176.424
  0
LINE
  8
0
 10
11.400
 20
0.794
 11
11.500
 21
-0.806
  0
LINE
  8
0
 10
11.600
 20
0.806
 11
11.700
 21
-0.794
  0
ARC
  8
0
 10
11.600
 20
-0.800
 40
0.100
 50
-176.424
 51
3.576
  0
LINE
  8
0
 10
11.600
 20
0.806
 11
11.600
 21
0.803
  0
LINE
  8
0
 10
11.700
 20
-0.806
 11
11.700
 21
-0.803
  0
ARC
  8
0
 10
11.700
 20
0.800
 40
0.100
 50
3.576
 51
-176.424
  0
LINE
  8
0
 10
11.600
 20
0.794
 11
11.700
 21
-0.806
  0
LINE
  8
0
 10
11.800
 20
0.806
 11
11.900
 21
-0.794
  0
ARC
  8
0
 10
11.800
 20
-0.800
 40
0.100
 50
-176.424
 51
3.576
  0
LINE
  8
0
 10
11.800
 20
0.806
 11
11.800
 21
0.803
  0
LINE
  8
0
 10
11.900
 20
-0.806
 11
11.900
 21
-0.803
  0
ARC
  8
0
 10
11.900
 20
0.800
 40
0.100
 50
3.576
 51
-176.424
  0
LINE
  8
0
 10
11.800
 20
0.794
 11
11.900
 21
-0.806
  0
LINE
  8
0
 10
12.000
 20
0.806
 11
12.100
 21
-0.794
  0
ARC
  8
0
 10
12.000
 20
-0.800
 40
0.100
 50
-176.424
 51
3.576
  0
LINE
  8
0
 10
12.000
 20
0.806
 11
12.000
 21
0.803
  0
LINE
  8
0
 10
12.100
 20
-0.806
 11
12.100
 21
-0.803
  0
ARC
  8
0
 10
12.100
 20
0.800
 40
0.100
 50
3.576
 51
-176.424
  0
LINE
  8
0
 10
12.000
 20
0.794
 11
12.100
 21
-0.806
  0
LINE
  8
0
 10
12.200
 20
0.806
 11
12.300
 21
-0.794
  0
ARC
  8
0
 10
12.200
 20
-0.800
 40
0.100
 50
-176.424
 51
3.576
  0
LINE
  8
0
 10
12.200
 20
0.806
 11
12.200
 21
0.803
  0
LINE
  8
0
 10
12.300
 20
-0.806
 11
12.300
 21
-0.803
  0
ARC
  8
0
 10
12.300
 20
0.800
 40
0.100
 50
3.576
 51
-176.424
  0
LINE
  8
0
 10
12.200
 20
0.794
 11
12.300
 21
-0.806
  0
LINE
  8
0
 10
12.400
 20
0.806
 11
12.500
 21
-0.794
  0
ARC
  8
0
 10
12.400
 20
-0.800
 40
0.100
 50
-176.424
 51
3.576
  0
LINE
  8
0
 10
12.400
 20
0.806
 11
12.400
 21
0.803
  0
LINE
  8
0
 10
12.500
 20
-0.806
 11
12.500
 21
-0.803
  0
ARC
  8
0
 10
12.500
 20
0.800
 40
0.100
 50
3.576
 51
-176.424
  0
LINE
  8
0
 10
12.400
 20
0.794
 11
12.500
 21
-0.806
  0
LINE
  8
0
 10
12.600
 20
0.806
 11
12.700
 21
-0.794
  0
ARC
  8
0
 10
12.600
 20
-0.800
 40
0.100
 50
-176.424
 51
3.576
  0
LINE
  8
0
 10
12.600
 20
0.806
 11
12.600
 21
0.803
  0
LINE
  8
0
 10
12.700
 20
-0.806
 11
12.700
 21
-0.803
  0
ARC
  8
0
 10
12.700
 20
0.800
 40
0.100
 50
3.576
 51
-176.424
  0
LINE
  8
0
 10
12.600
 20
0.794
 11
12.700
 21
-0.806
  0
LINE
  8
0
 10
12.800
 20
0.806
 11
12.900
 21
-0.794
  0
ARC
  8
0
 10
12.800
 20
-0.800
 40
0.100
 50
-176.424
 51
3.576
  0
LINE
  8
0
 10
12.800
 20
0.806
 11
12.800
 21
0.803
  0
LINE
  8
0
 10
12.900
 20
-0.806
 11
12.900
 21
-0.803
  0
ARC
  8
0
 10
12.900
 20
0.800
 40
0.100
 50
3.576
 51
-176.424
  0
LINE
  8
0
 10
12.800
 20
0.794
 11
12.900
 21
-0.806
  0
LINE
  8
0
 10
13.000
 20
0.806
 11
13.100
 21
-0.794
  0
ARC
  8
0
 10
13.000
 20
-0.800
 40
0.100
 50
-176.424
 51
3.576
  0
LINE
  8
0
 10
13.000
 20
0.806
 11
13.000
 21
0.803
  0
LINE
  8
0
 10
13.100
 20
-0.806
 11
13.100
 21
-0.803
  0
ARC
  8
0
 10
13.100
 20
0.800
 40
0.100
 50
3.576
 51
-176.424
  0
LINE
  8
0
 10
13.000
 20
0.794
 11
13.100
 21
-0.806
  0
LINE
  8
0
 10
13.200
 20
0.806
 11
13.300
 21
-0.794
  0
ARC
  8
0
 10
13.200
 20
-0.800
 40
0.100
 50
-176.424
 51
3.576
  0
LINE
  8
0
 10
13.200
 20
0.806
 11
13.200
 21
0.803
  0
LINE
  8
0
 10
13.300
 20
-0.806
 11
13.300
 21
-0.803
  0
ARC
  8
0
 10
13.300
 20
0.800
 40
0.100
 50
3.576
 51
-176.424
  0
LINE
  8
0
 10
13.200
 20
0.794
 11
13.300
 21
-0.806
  0
LINE
  8
0
 10
13.400
 20
0.806
 11
13.500
 21
-0.794
  0
ARC
  8
0
 10
13.400
 20
-0.800
 40
0.100
 50
-176.424
 51
3.576
  0
LINE
  8
0
 10
13.400
 20
0.806
 11
13.400
 21
0.803
  0
LINE
  8
0
 10
13.500
 20
-0.806
 11
13.500
 21
-0.803
  0
ARC
  8
0
 10
13.500
 20
0.800
 40
0.100
 50
3.576
 51
-176.424
  0
LINE
  8
0
 10
13.400
 20
0.794
 11
13.500
 21
-0.806
  0
LINE
  8
0
 10
13.600
 20
0.806
 11
13.700
 21
-0.794
  0
ARC
  8
0
 10
13.600
 20
-0.800
 40
0.100
 50
-176.424
 51
3.576
  0
LINE
  8
0
 10
13.600
 20
0.806
 11
13.600
 21
0.803
  0
LINE
  8
0
 10
13.700
 20
-0.806
 11
13.700
 21
-0.803
  0
ARC
  8
0
 10
13.700
 20
0.800
 40
0.100
 50
3.576
 51
-176.424
  0
LINE
  8
0
 10
13.600
 20
0.794
 11
13.700
 21
-0.806
  0
LINE
  8
0
 10
13.800
 20
0.806
 11
13.900
 21
-0.794
  0
ARC
  8
0
 10
13.800
 20
-0.800
 40
0.100
 50
-176.424
 51
3.576
  0
LINE
  8
0
 10
13.800
 20
0.806
 11
13.800
 21
0.803
  0
LINE
  8
0
 10
13.900
 20
-0.806
 11
13.900
 21
-0.803
  0
ARC
  8
0
 10
13.900
 20
0.800
 40
0.100
 50
3.576
 51
-176.424
  0
LINE
  8
0
 10
13.800
 20
0.794
 11
13.900
 21
-0.806
  0
LINE
  8
0
 10
14.000
 20
0.806
 11
14.100
 21
-0.794
  0
ARC
  8
0
 10
14.000
 20
-0.800
 40
0.100
 50
-176.424
 51
3.576
  0
LINE
  8
0
 10
14.000
 20
0.806
 11
14.000
 21
0.803
  0
LINE
  8
0
 10
14.100
 20
-0.806
 11
14.100
 21
-0.803
  0
ARC
  8
0
 10
14.100
 20
0.800
 40
0.100
 50
3.576
 51
-176.424
  0
LINE
  8
0
 10
14.000
 20
0.794
 11
14.088
 21
-0.606
  0
LINE
  8
0
 10
14.200
 20
0.806
 11
14.287
 21
-0.594
  0
ARC
  8
0
 10
14.188
 20
-0.600
 40
0.100
 50
-176.424
 51
3.576
  0
LINE
  8
0
 10
14.287
 20
-0.602
 11
14.300
 21
0.014
  0
ARC
  8
0
 10
15.000
 20
0.000
 40
0.700
 50
-112.500
 51
178.823
  0
ARC
  8
0
 10
15.000
 20
0.000
 40
0.900
 50
-112.500
 51
149.829
  0
LINE
  8
0
 10
14.656
 20
-0.831
 11
14.732
 21
-0.647
  0
ENDSEC
  0
EOF
