  0
SECTION
  2
ENTITIES
  0
ARC
  8
0
 10
0.670
 20
0.000
 40
0.670
 50
67.500
 51
-1.377
  0
ARC
  8
0
 10
0.670
 20
0.000
 40
0.900
 50
67.500
 51
-32.120
  0
LINE
  8
0
 10
0.926
 20
0.619
 11
1.014
 21
0.831
  0
LINE
  8
0
 10
1.340
 20
-0.016
 11
1.354
 21
0.592
  0
ARC
  8
0
 10
1.469
 20
0.589
 40
0.115
 50
4.189
 51
-175.811
  0
LINE
  8
0
 10
1.355
 20
0.580
 11
1.455
 21
-0.793
  0
LINE
  8
0
 10
1.584
 20
0.597
 11
1.685
 21
-0.777
  0
ARC
  8
0
 10
1.570
 20
-0.785
 40
0.115
 50
-175.811
 51
4.189
  0
LINE
  8
0
 10
1.570
 20
0.793
 11
1.570
 21
0.789
  0
LINE
  8
0
 10
1.685
 20
-0.793
 11
1.685
 21
-0.789
  0
ARC
  8
0
 10
1.685
 20
0.785
 40
0.115
 50
4.189
 51
-175.811
  0
LINE
  8
0
 10
1.570
 20
0.777
 11
1.685
 21
-0.793
  0
LINE
  8
0
 10
1.800
 20
0.793
 11
1.915
 21
-0.777
  0
ARC
  8
0
 10
1.800
 20
-0.785
 40
0.115
 50
-175.811
 51
4.189
  0
LINE
  8
0
 10
1.800
 20
0.793
 11
1.800
 21
0.789
  0
LINE
  8
0
 10
1.915
 20
-0.793
 11
1.915
 21
-0.789
  0
ARC
  8
0
 10
1.915
 20
0.785
 40
0.115
 50
4.189
 51
-175.811
  0
LINE
  8
0
 10
1.800
 20
0.777
 11
1.915
 21
-0.793
  0
LINE
  8
0
 10
2.030
 20
0.793
 11
2.145
 21
-0.777
  0
ARC
  8
0
 10
2.030
 20
-0.785
 40
0.115
 50
-175.811
 51
4.189
  0
LINE
  8
0
 10
2.030
 20
0.793
 11
2.030
 21
0.789
  0
LINE
  8
0
 10
2.145
 20
-0.793
 11
2.145
 21
-0.789
  0
ARC
  8
0
 10
2.145
 20
0.785
 40
0.115
 50
4.189
 51
-175.811
  0
LINE
  8
0
 10
2.030
 20
0.777
 11
2.145
 21
-0.793
  0
LINE
  8
0
 10
2.260
 20
0.793
 11
2.375
 21
-0.777
  0
ARC
  8
0
 10
2.260
 20
-0.785
 40
0.115
 50
-175.811
 51
4.189
  0
LINE
  8
0
 10
2.260
 20
0.793
 11
2.260
 21
0.789
  0
LINE
  8
0
 10
2.375
 20
-0.793
 11
2.375
 21
-0.789
  0
ARC
  8
0
 10
2.375
 20
0.785
 40
0.115
 50
4.189
 51
-175.811
  0
LINE
  8
0
 10
2.260
 20
0.777
 11
2.375
 21
-0.793
  0
LINE
  8
0
 10
2.490
 20
0.793
 11
2.605
 21
-0.777
  0
ARC
  8
0
 10
2.490
 20
-0.785
 40
0.115
 50
-175.811
 51
4.189
  0
LINE
  8
0
 10
2.490
 20
0.793
 11
2.490
 21
0.789
  0
LINE
  8
0
 10
2.605
 20
-0.793
 11
2.605
 21
-0.789
  0
ARC
  8
0
 10
2.605
 20
0.785
 40
0.115
 50
4.189
 51
-175.811
  0
LINE
  8
0
 10
2.490
 20
0.777
 11
2.605
 21
-0.793
  0
LINE
  8
0
 10
2.720
 20
0.793
 11
2.835
 21
-0.777
  0
ARC
  8
0
 10
2.720
 20
-0.785
 40
0.115
 50
-175.811
 51
4.189
  0
LINE
  8
0
 10
2.720
 20
0.793
 11
2.720
 21
0.789
  0
LINE
  8
0
 10
2.835
 20
-0.793
 11
2.835
 21
-0.789
  0
ARC
  8
0
 10
2.835
 20
0.785
 40
0.115
 50
4.189
 51
-175.811
  0
LINE
  8
0
 10
2.720
 20
0.777
 11
2.835
 21
-0.793
  0
LINE
  8
0
 10
2.950
 20
0.793
 11
3.065
 21
-0.777
  0
ARC
  8
0
 10
2.950
 20
-0.785
 40
0.115
 50
-175.811
 51
4.189
  0
LINE
  8
0
 10
2.950
 20
0.793
 11
2.950
 21
0.789
  0
LINE
  8
0
 10
3.065
 20
-0.793
 11
3.065
 21
-0.789
  0
ARC
  8
0
 10
3.065
 20
0.785
 40
0.115
 50
4.189
 51
-175.811
  0
LINE
  8
0
 10
2.950
 20
0.777
 11
3.065
 21
-0.793
  0
LINE
  8
0
 10
3.180
 20
0.793
 11
3.295
 21
-0.777
  0
ARC
  8
0
 10
3.180
 20
-0.785
 40
0.115
 50
-175.811
 51
4.189
  0
LINE
  8
0
 10
3.180
 20
0.793
 11
3.180
 21
0.789
  0
LINE
  8
0
 10
3.295
 20
-0.793
 11
3.295
 21
-0.789
  0
ARC
  8
0
 10
3.295
 20
0.785
 40
0.115
 50
4.189
 51
-175.811
  0
LINE
  8
0
 10
3.180
 20
0.777
 11
3.295
 21
-0.793
  0
LINE
  8
0
 10
3.410
 20
0.793
 11
3.525
 21
-0.777
  0
ARC
  8
0
 10
3.410
 20
-0.785
 40
0.115
 50
-175.811
 51
4.189
  0
LINE
  8
0
 10
3.410
 20
0.793
 11
3.410
 21
0.789
  0
LINE
  8
0
 10
3.525
 20
-0.793
 11
3.525
 21
-0.789
  0
ARC
  8
0
 10
3.525
 20
0.785
 40
0.115
 50
4.189
 51
-175.811
  0
LINE
  8
0
 10
3.410
 20
0.777
 11
3.525
 21
-0.793
  0
LINE
  8
0
 10
3.640
 20
0.793
 11
3.755
 21
-0.777
  0
ARC
  8
0
 10
3.640
 20
-0.785
 40
0.115
 50
-175.811
 51
4.189
  0
LINE
  8
0
 10
3.640
 20
0.793
 11
3.640
 21
0.789
  0
LINE
  8
0
 10
3.755
 20
-0.793
 11
3.755
 21
-0.789
  0
ARC
  8
0
 10
3.755
 20
0.785
 40
0.115
 50
4.189
 51
-175.811
  0
LINE
  8
0
 10
3.640
 20
0.777
 11
3.755
 21
-0.793
  0
LINE
  8
0
 10
3.870
 20
0.793
 11
3.985
 21
-0.777
  0
ARC
  8
0
 10
3.870
 20
-0.785
 40
0.115
 50
-175.811
 51
4.189
  0
LINE
  8
0
 10
3.870
 20
0.793
 11
3.870
 21
0.789
  0
LINE
  8
0
 10
3.985
 20
-0.793
 11
3.985
 21
-0.789
  0
ARC
  8
0
 10
3.985
 20
0.785
 40
0.115
 50
4.189
 51
-175.811
  0
LINE
  8
0
 10
3.870
 20
0.777
 11
3.985
 21
-0.793
  0
LINE
  8
0
 10
4.100
 20
0.793
 11
4.215
 21
-0.777
  0
ARC
  8
0
 10
4.100
 20
-0.785
 40
0.115
 50
-175.811
 51
4.189
  0
LINE
  8
0
 10
4.100
 20
0.793
 11
4.100
 21
0.789
  0
LINE
  8
0
 10
4.215
 20
-0.793
 11
4.215
 21
-0.789
  0
ARC
  8
0
 10
4.215
 20
0.785
 40
0.115
 50
4.189
 51
-175.811
  0
LINE
  8
0
 10
4.100
 20
0.777
 11
4.215
 21
-0.793
  0
LINE
  8
0
 10
4.330
 20
0.793
 11
4.445
 21
-0.777
  0
ARC
  8
0
 10
4.330
 20
-0.785
 40
0.115
 50
-175.811
 51
4.189
  0
LINE
  8
0
 10
4.330
 20
0.793
 11
4.330
 21
0.789
  0
LINE
  8
0
 10
4.445
 20
-0.793
 11
4.445
 21
-0.789
  0
ARC
  8
0
 10
4.445
 20
0.785
 40
0.115
 50
4.189
 51
-175.811
  0
LINE
  8
0
 10
4.330
 20
0.777
 11
4.445
 21
-0.793
  0
LINE
  8
0
 10
4.560
 20
0.793
 11
4.675
 21
-0.777
  0
ARC
  8
0
 10
4.560
 20
-0.785
 40
0.115
 50
-175.811
 51
4.189
  0
LINE
  8
0
 10
4.560
 20
0.793
 11
4.560
 21
0.789
  0
LINE
  8
0
 10
4.675
 20
-0.793
 11
4.675
 21
-0.789
  0
ARC
  8
0
 10
4.675
 20
0.785
 40
0.115
 50
4.189
 51
-175.811
  0
LINE
  8
0
 10
4.560
 20
0.777
 11
4.675
 21
-0.793
  0
LINE
  8
0
 10
4.790
 20
0.793
 11
4.905
 21
-0.777
  0
ARC
  8
0
 10
4.790
 20
-0.785
 40
0.115
 50
-175.811
 51
4.189
  0
LINE
  8
0
 10
4.790
 20
0.793
 11
4.790
 21
0.789
  0
LINE
  8
0
 10
4.905
 20
-0.793
 11
4.905
 21
-0.789
  0
ARC
  8
0
 10
4.905
 20
0.785
 40
0.115
 50
4.189
 51
-175.811
  0
LINE
  8
0
 10
4.790
 20
0.777
 11
4.905
 21
-0.793
  0
LINE
  8
0
 10
5.020
 20
0.793
 11
5.135
 21
-0.777
  0
ARC
  8
0
 10
5.020
 20
-0.785
 40
0.115
 50
-175.811
 51
4.189
  0
LINE
  8
0
 10
5.020
 20
0.793
 11
5.020
 21
0.789
  0
LINE
  8
0
 10
5.135
 20
-0.793
 11
5.135
 21
-0.789
  0
ARC
  8
0
 10
5.135
 20
0.785
 40
0.115
 50
4.189
 51
-175.811
  0
LINE
  8
0
 10
5.020
 20
0.777
 11
5.135
 21
-0.793
  0
LINE
  8
0
 10
5.250
 20
0.793
 11
5.365
 21
-0.777
  0
ARC
  8
0
 10
5.250
 20
-0.785
 40
0.115
 50
-175.811
 51
4.189
  0
LINE
  8
0
 10
5.250
 20
0.793
 11
5.250
 21
0.789
  0
LINE
  8
0
 10
5.365
 20
-0.793
 11
5.365
 21
-0.789
  0
ARC
  8
0
 10
5.365
 20
0.785
 40
0.115
 50
4.189
 51
-175.811
  0
LINE
  8
0
 10
5.250
 20
0.777
 11
5.365
 21
-0.793
  0
LINE
  8
0
 10
5.480
 20
0.793
 11
5.595
 21
-0.777
  0
ARC
  8
0
 10
5.480
 20
-0.785
 40
0.115
 50
-175.811
 51
4.189
  0
LINE
  8
0
 10
5.480
 20
0.793
 11
5.480
 21
0.789
  0
LINE
  8
0
 10
5.595
 20
-0.793
 11
5.595
 21
-0.789
  0
ARC
  8
0
 10
5.595
 20
0.785
 40
0.115
 50
4.189
 51
-175.811
  0
LINE
  8
0
 10
5.480
 20
0.777
 11
5.595
 21
-0.793
  0
LINE
  8
0
 10
5.710
 20
0.793
 11
5.825
 21
-0.777
  0
ARC
  8
0
 10
5.710
 20
-0.785
 40
0.115
 50
-175.811
 51
4.189
  0
LINE
  8
0
 10
5.710
 20
0.793
 11
5.710
 21
0.789
  0
LINE
  8
0
 10
5.825
 20
-0.793
 11
5.825
 21
-0.789
  0
ARC
  8
0
 10
5.825
 20
0.785
 40
0.115
 50
4.189
 51
-175.811
  0
LINE
  8
0
 10
5.710
 20
0.777
 11
5.825
 21
-0.793
  0
LINE
  8
0
 10
5.940
 20
0.793
 11
6.055
 21
-0.777
  0
ARC
  8
0
 10
5.940
 20
-0.785
 40
0.115
 50
-175.811
 51
4.189
  0
LINE
  8
0
 10
5.940
 20
0.793
 11
5.940
 21
0.789
  0
LINE
  8
0
 10
6.055
 20
-0.793
 11
6.055
 21
-0.789
  0
ARC
  8
0
 10
6.055
 20
0.785
 40
0.115
 50
4.189
 51
-175.811
  0
LINE
  8
0
 10
5.940
 20
0.777
 11
6.055
 21
-0.793
  0
LINE
  8
0
 10
6.170
 20
0.793
 11
6.285
 21
-0.777
  0
ARC
  8
0
 10
6.170
 20
-0.785
 40
0.115
 50
-175.811
 51
4.189
  0
LINE
  8
0
 10
6.170
 20
0.793
 11
6.170
 21
0.789
  0
LINE
  8
0
 10
6.285
 20
-0.793
 11
6.285
 21
-0.789
  0
ARC
  8
0
 10
6.285
 20
0.785
 40
0.115
 50
4.189
 51
-175.811
  0
LINE
  8
0
 10
6.170
 20
0.777
 11
6.285
 21
-0.793
  0
LINE
  8
0
 10
6.400
 20
0.793
 11
6.515
 21
-0.777
  0
ARC
  8
0
 10
6.400
 20
-0.785
 40
0.115
 50
-175.811
 51
4.189
  0
LINE
  8
0
 10
6.400
 20
0.793
 11
6.400
 21
0.789
  0
LINE
  8
0
 10
6.515
 20
-0.793
 11
6.515
 21
-0.789
  0
ARC
  8
0
 10
6.515
 20
0.785
 40
0.115
 50
4.189
 51
-175.811
  0
LINE
  8
0
 10
6.400
 20
0.777
 11
6.515
 21
-0.793
  0
LINE
  8
0
 10
6.630
 20
0.793
 11
6.745
 21
-0.777
  0
ARC
  8
0
 10
6.630
 20
-0.785
 40
0.115
 50
-175.811
 51
4.189
  0
LINE
  8
0
 10
6.630
 20
0.793
 11
6.630
 21
0.789
  0
LINE
  8
0
 10
6.745
 20
-0.793
 11
6.745
 21
-0.789
  0
ARC
  8
0
 10
6.745
 20
0.785
 40
0.115
 50
4.189
 51
-175.811
  0
LINE
  8
0
 10
6.630
 20
0.777
 11
6.745
 21
-0.793
  0
LINE
  8
0
 10
6.860
 20
0.793
 11
6.975
 21
-0.777
  0
ARC
  8
0
 10
6.860
 20
-0.785
 40
0.115
 50
-175.811
 51
4.189
  0
LINE
  8
0
 10
6.860
 20
0.793
 11
6.860
 21
0.789
  0
LINE
  8
0
 10
6.975
 20
-0.793
 11
6.975
 21
-0.789
  0
ARC
  8
0
 10
6.975
 20
0.785
 40
0.115
 50
4.189
 51
-175.811
  0
LINE
  8
0
 10
6.860
 20
0.777
 11
6.975
 21
-0.793
  0
LINE
  8
0
 10
7.090
 20
0.793
 11
7.205
 21
-0.777
  0
ARC
  8
0
 10
7.090
 20
-0.785
 40
0.115
 50
-175.811
 51
4.189
  0
LINE
  8
0
 10
7.090
 20
0.793
 11
7.090
 21
0.789
  0
LINE
  8
0
 10
7.205
 20
-0.793
 11
7.205
 21
-0.789
  0
ARC
  8
0
 10
7.205
 20
0.785
 40
0.115
 50
4.189
 51
-175.811
  0
LINE
  8
0
 10
7.090
 20
0.777
 11
7.205
 21
-0.793
  0
LINE
  8
0
 10
7.320
 20
0.793
 11
7.435
 21
-0.777
  0
ARC
  8
0
 10
7.320
 20
-0.785
 40
0.115
 50
-175.811
 51
4.189
  0
LINE
  8
0
 10
7.320
 20
0.793
 11
7.320
 21
0.789
  0
LINE
  8
0
 10
7.435
 20
-0.793
 11
7.435
 21
-0.789
  0
ARC
  8
0
 10
7.435
 20
0.785
 40
0.115
 50
4.189
 51
-175.811
  0
LINE
  8
0
 10
7.320
 20
0.777
 11
7.435
 21
-0.793
  0
LINE
  8
0
 10
7.550
 20
0.793
 11
7.665
 21
-0.777
  0
ARC
  8
0
 10
7.550
 20
-0.785
 40
0.115
 50
-175.811
 51
4.189
  0
LINE
  8
0
 10
7.550
 20
0.793
 11
7.550
 21
0.789
  0
LINE
  8
0
 10
7.665
 20
-0.793
 11
7.665
 21
-0.789
  0
ARC
  8
0
 10
7.665
 20
0.785
 40
0.115
 50
4.189
 51
-175.811
  0
LINE
  8
0
 10
7.550
 20
0.777
 11
7.665
 21
-0.793
  0
LINE
  8
0
 10
7.780
 20
0.793
 11
7.895
 21
-0.777
  0
ARC
  8
0
 10
7.780
 20
-0.785
 40
0.115
 50
-175.811
 51
4.189
  0
LINE
  8
0
 10
7.780
 20
0.793
 11
7.780
 21
0.789
  0
LINE
  8
0
 10
7.895
 20
-0.793
 11
7.895
 21
-0.789
  0
ARC
  8
0
 10
7.895
 20
0.785
 40
0.115
 50
4.189
 51
-175.811
  0
LINE
  8
0
 10
7.780
 20
0.777
 11
7.895
 21
-0.793
  0
LINE
  8
0
 10
8.010
 20
0.793
 11
8.125
 21
-0.777
  0
ARC
  8
0
 10
8.010
 20
-0.785
 40
0.115
 50
-175.811
 51
4.189
  0
LINE
  8
0
 10
8.010
 20
0.793
 11
8.010
 21
0.789
  0
LINE
  8
0
 10
8.125
 20
-0.793
 11
8.125
 21
-0.789
  0
ARC
  8
0
 10
8.125
 20
0.785
 40
0.115
 50
4.189
 51
-175.811
  0
LINE
  8
0
 10
8.010
 20
0.777
 11
8.111
 21
-0.597
  0
LINE
  8
0
 10
8.240
 20
0.793
 11
8.340
 21
-0.580
  0
ARC
  8
0
 10
8.226
 20
-0.589
 40
0.115
 50
-175.811
 51
4.189
  0
LINE
  8
0
 10
8.341
 20
-0.592
 11
8.355
 21
0.016
  0
ARC
  8
0
 10
9.025
 20
0.000
 40
0.670
 50
-112.500
 51
178.623
  0
ARC
  8
0
 10
9.025
 20
0.000
 40
0.900
 50
-112.500
 51
147.880
  0
LINE
  8
0
 10
8.681
 20
-0.831
 11
8.769
 21
-0.619
  0
ENDSEC
  0
EOF
