  0
SECTION
  2
ENTITIES
  0
ARC
  8
0
 10
0.800
 20
0.000
 40
0.800
 50
67.500
 51
-1.048
  0
ARC
  8
0
 10
0.800
 20
0.000
 40
1.000
 50
67.500
 51
-28.767
  0
LINE
  8
0
 10
1.106
 20
0.739
 11
1.183
 21
0.924
  0
LINE
  8
0
 10
1.600
 20
-0.015
 11
1.613
 21
0.677
  0
ARC
  8
0
 10
1.713
 20
0.675
 40
0.100
 50
3.180
 51
-176.820
  0
LINE
  8
0
 10
1.613
 20
0.669
 11
1.700
 21
-0.906
  0
LINE
  8
0
 10
1.812
 20
0.681
 11
1.900
 21
-0.894
  0
ARC
  8
0
 10
1.800
 20
-0.900
 40
0.100
 50
-176.820
 51
3.180
  0
LINE
  8
0
 10
1.800
 20
0.906
 11
1.800
 21
0.903
  0
LINE
  8
0
 10
1.900
 20
-0.906
 11
1.900
 21
-0.903
  0
ARC
  8
0
 10
1.900
 20
0.900
 40
0.100
 50
3.180
 51
-176.820
  0
LINE
  8
0
 10
1.800
 20
0.894
 11
1.900
 21
-0.906
  0
LINE
  8
0
 10
2.000
 20
0.906
 11
2.100
 21
-0.894
  0
ARC
  8
0
 10
2.000
 20
-0.900
 40
0.100
 50
-176.820
 51
3.180
  0
LINE
  8
0
 10
2.000
 20
0.906
 11
2.000
 21
0.903
  0
LINE
  8
0
 10
2.100
 20
-0.906
 11
2.100
 21
-0.903
  0
ARC
  8
0
 10
2.100
 20
0.900
 40
0.100
 50
3.180
 51
-176.820
  0
LINE
  8
0
 10
2.000
 20
0.894
 11
2.100
 21
-0.906
  0
LINE
  8
0
 10
2.200
 20
0.906
 11
2.300
 21
-0.894
  0
ARC
  8
0
 10
2.200
 20
-0.900
 40
0.100
 50
-176.820
 51
3.180
  0
LINE
  8
0
 10
2.200
 20
0.906
 11
2.200
 21
0.903
  0
LINE
  8
0
 10
2.300
 20
-0.906
 11
2.300
 21
-0.903
  0
ARC
  8
0
 10
2.300
 20
0.900
 40
0.100
 50
3.180
 51
-176.820
  0
LINE
  8
0
 10
2.200
 20
0.894
 11
2.300
 21
-0.906
  0
LINE
  8
0
 10
2.400
 20
0.906
 11
2.500
 21
-0.894
  0
ARC
  8
0
 10
2.400
 20
-0.900
 40
0.100
 50
-176.820
 51
3.180
  0
LINE
  8
0
 10
2.400
 20
0.906
 11
2.400
 21
0.903
  0
LINE
  8
0
 10
2.500
 20
-0.906
 11
2.500
 21
-0.903
  0
ARC
  8
0
 10
2.500
 20
0.900
 40
0.100
 50
3.180
 51
-176.820
  0
LINE
  8
0
 10
2.400
 20
0.894
 11
2.500
 21
-0.906
  0
LINE
  8
0
 10
2.600
 20
0.906
 11
2.700
 21
-0.894
  0
ARC
  8
0
 10
2.600
 20
-0.900
 40
0.100
 50
-176.820
 51
3.180
  0
LINE
  8
0
 10
2.600
 20
0.906
 11
2.600
 21
0.903
  0
LINE
  8
0
 10
2.700
 20
-0.906
 11
2.700
 21
-0.903
  0
ARC
  8
0
 10
2.700
 20
0.900
 40
0.100
 50
3.180
 51
-176.820
  0
LINE
  8
0
 10
2.600
 20
0.894
 11
2.700
 21
-0.906
  0
LINE
  8
0
 10
2.800
 20
0.906
 11
2.900
 21
-0.894
  0
ARC
  8
0
 10
2.800
 20
-0.900
 40
0.100
 50
-176.820
 51
3.180
  0
LINE
  8
0
 10
2.800
 20
0.906
 11
2.800
 21
0.903
  0
LINE
  8
0
 10
2.900
 20
-0.906
 11
2.900
 21
-0.903
  0
ARC
  8
0
 10
2.900
 20
0.900
 40
0.100
 50
3.180
 51
-176.820
  0
LINE
  8
0
 10
2.800
 20
0.894
 11
2.900
 21
-0.906
  0
LINE
  8
0
 10
3.000
 20
0.906
 11
3.100
 21
-0.894
  0
ARC
  8
0
 10
3.000
 20
-0.900
 40
0.100
 50
-176.820
 51
3.180
  0
LINE
  8
0
 10
3.000
 20
0.906
 11
3.000
 21
0.903
  0
LINE
  8
0
 10
3.100
 20
-0.906
 11
3.100
 21
-0.903
  0
ARC
  8
0
 10
3.100
 20
0.900
 40
0.100
 50
3.180
 51
-176.820
  0
LINE
  8
0
 10
3.000
 20
0.894
 11
3.100
 21
-0.906
  0
LINE
  8
0
 10
3.200
 20
0.906
 11
3.300
 21
-0.894
  0
ARC
  8
0
 10
3.200
 20
-0.900
 40
0.100
 50
-176.820
 51
3.180
  0
LINE
  8
0
 10
3.200
 20
0.906
 11
3.200
 21
0.903
  0
LINE
  8
0
 10
3.300
 20
-0.906
 11
3.300
 21
-0.903
  0
ARC
  8
0
 10
3.300
 20
0.900
 40
0.100
 50
3.180
 51
-176.820
  0
LINE
  8
0
 10
3.200
 20
0.894
 11
3.300
 21
-0.906
  0
LINE
  8
0
 10
3.400
 20
0.906
 11
3.500
 21
-0.894
  0
ARC
  8
0
 10
3.400
 20
-0.900
 40
0.100
 50
-176.820
 51
3.180
  0
LINE
  8
0
 10
3.400
 20
0.906
 11
3.400
 21
0.903
  0
LINE
  8
0
 10
3.500
 20
-0.906
 11
3.500
 21
-0.903
  0
ARC
  8
0
 10
3.500
 20
0.900
 40
0.100
 50
3.180
 51
-176.820
  0
LINE
  8
0
 10
3.400
 20
0.894
 11
3.500
 21
-0.906
  0
LINE
  8
0
 10
3.600
 20
0.906
 11
3.700
 21
-0.894
  0
ARC
  8
0
 10
3.600
 20
-0.900
 40
0.100
 50
-176.820
 51
3.180
  0
LINE
  8
0
 10
3.600
 20
0.906
 11
3.600
 21
0.903
  0
LINE
  8
0
 10
3.700
 20
-0.906
 11
3.700
 21
-0.903
  0
ARC
  8
0
 10
3.700
 20
0.900
 40
0.100
 50
3.180
 51
-176.820
  0
LINE
  8
0
 10
3.600
 20
0.894
 11
3.700
 21
-0.906
  0
LINE
  8
0
 10
3.800
 20
0.906
 11
3.900
 21
-0.894
  0
ARC
  8
0
 10
3.800
 20
-0.900
 40
0.100
 50
-176.820
 51
3.180
  0
LINE
  8
0
 10
3.800
 20
0.906
 11
3.800
 21
0.903
  0
LINE
  8
0
 10
3.900
 20
-0.906
 11
3.900
 21
-0.903
  0
ARC
  8
0
 10
3.900
 20
0.900
 40
0.100
 50
3.180
 51
-176.820
  0
LINE
  8
0
 10
3.800
 20
0.894
 11
3.900
 21
-0.906
  0
LINE
  8
0
 10
4.000
 20
0.906
 11
4.100
 21
-0.894
  0
ARC
  8
0
 10
4.000
 20
-0.900
 40
0.100
 50
-176.820
 51
3.180
  0
LINE
  8
0
 10
4.000
 20
0.906
 11
4.000
 21
0.903
  0
LINE
  8
0
 10
4.100
 20
-0.906
 11
4.100
 21
-0.903
  0
ARC
  8
0
 10
4.100
 20
0.900
 40
0.100
 50
3.180
 51
-176.820
  0
LINE
  8
0
 10
4.000
 20
0.894
 11
4.100
 21
-0.906
  0
LINE
  8
0
 10
4.200
 20
0.906
 11
4.300
 21
-0.894
  0
ARC
  8
0
 10
4.200
 20
-0.900
 40
0.100
 50
-176.820
 51
3.180
  0
LINE
  8
0
 10
4.200
 20
0.906
 11
4.200
 21
0.903
  0
LINE
  8
0
 10
4.300
 20
-0.906
 11
4.300
 21
-0.903
  0
ARC
  8
0
 10
4.300
 20
0.900
 40
0.100
 50
3.180
 51
-176.820
  0
LINE
  8
0
 10
4.200
 20
0.894
 11
4.300
 21
-0.906
  0
LINE
  8
0
 10
4.400
 20
0.906
 11
4.500
 21
-0.894
  0
ARC
  8
0
 10
4.400
 20
-0.900
 40
0.100
 50
-176.820
 51
3.180
  0
LINE
  8
0
 10
4.400
 20
0.906
 11
4.400
 21
0.903
  0
LINE
  8
0
 10
4.500
 20
-0.906
 11
4.500
 21
-0.903
  0
ARC
  8
0
 10
4.500
 20
0.900
 40
0.100
 50
3.180
 51
-176.820
  0
LINE
  8
0
 10
4.400
 20
0.894
 11
4.500
 21
-0.906
  0
LINE
  8
0
 10
4.600
 20
0.906
 11
4.700
 21
-0.894
  0
ARC
  8
0
 10
4.600
 20
-0.900
 40
0.100
 50
-176.820
 51
3.180
  0
LINE
  8
0
 10
4.600
 20
0.906
 11
4.600
 21
0.903
  0
LINE
  8
0
 10
4.700
 20
-0.906
 11
4.700
 21
-0.903
  0
ARC
  8
0
 10
4.700
 20
0.900
 40
0.100
 50
3.180
 51
-176.820
  0
LINE
  8
0
 10
4.600
 20
0.894
 11
4.700
 21
-0.906
  0
LINE
  8
0
 10
4.800
 20
0.906
 11
4.900
 21
-0.894
  0
ARC
  8
0
 10
4.800
 20
-0.900
 40
0.100
 50
-176.820
 51
3.180
  0
LINE
  8
0
 10
4.800
 20
0.906
 11
4.800
 21
0.903
  0
LINE
  8
0
 10
4.900
 20
-0.906
 11
4.900
 21
-0.903
  0
ARC
  8
0
 10
4.900
 20
0.900
 40
0.100
 50
3.180
 51
-176.820
  0
LINE
  8
0
 10
4.800
 20
0.894
 11
4.900
 21
-0.906
  0
LINE
  8
0
 10
5.000
 20
0.906
 11
5.100
 21
-0.894
  0
ARC
  8
0
 10
5.000
 20
-0.900
 40
0.100
 50
-176.820
 51
3.180
  0
LINE
  8
0
 10
5.000
 20
0.906
 11
5.000
 21
0.903
  0
LINE
  8
0
 10
5.100
 20
-0.906
 11
5.100
 21
-0.903
  0
ARC
  8
0
 10
5.100
 20
0.900
 40
0.100
 50
3.180
 51
-176.820
  0
LINE
  8
0
 10
5.000
 20
0.894
 11
5.100
 21
-0.906
  0
LINE
  8
0
 10
5.200
 20
0.906
 11
5.300
 21
-0.894
  0
ARC
  8
0
 10
5.200
 20
-0.900
 40
0.100
 50
-176.820
 51
3.180
  0
LINE
  8
0
 10
5.200
 20
0.906
 11
5.200
 21
0.903
  0
LINE
  8
0
 10
5.300
 20
-0.906
 11
5.300
 21
-0.903
  0
ARC
  8
0
 10
5.300
 20
0.900
 40
0.100
 50
3.180
 51
-176.820
  0
LINE
  8
0
 10
5.200
 20
0.894
 11
5.300
 21
-0.906
  0
LINE
  8
0
 10
5.400
 20
0.906
 11
5.500
 21
-0.894
  0
ARC
  8
0
 10
5.400
 20
-0.900
 40
0.100
 50
-176.820
 51
3.180
  0
LINE
  8
0
 10
5.400
 20
0.906
 11
5.400
 21
0.903
  0
LINE
  8
0
 10
5.500
 20
-0.906
 11
5.500
 21
-0.903
  0
ARC
  8
0
 10
5.500
 20
0.900
 40
0.100
 50
3.180
 51
-176.820
  0
LINE
  8
0
 10
5.400
 20
0.894
 11
5.500
 21
-0.906
  0
LINE
  8
0
 10
5.600
 20
0.906
 11
5.700
 21
-0.894
  0
ARC
  8
0
 10
5.600
 20
-0.900
 40
0.100
 50
-176.820
 51
3.180
  0
LINE
  8
0
 10
5.600
 20
0.906
 11
5.600
 21
0.903
  0
LINE
  8
0
 10
5.700
 20
-0.906
 11
5.700
 21
-0.903
  0
ARC
  8
0
 10
5.700
 20
0.900
 40
0.100
 50
3.180
 51
-176.820
  0
LINE
  8
0
 10
5.600
 20
0.894
 11
5.700
 21
-0.906
  0
LINE
  8
0
 10
5.800
 20
0.906
 11
5.900
 21
-0.894
  0
ARC
  8
0
 10
5.800
 20
-0.900
 40
0.100
 50
-176.820
 51
3.180
  0
LINE
  8
0
 10
5.800
 20
0.906
 11
5.800
 21
0.903
  0
LINE
  8
0
 10
5.900
 20
-0.906
 11
5.900
 21
-0.903
  0
ARC
  8
0
 10
5.900
 20
0.900
 40
0.100
 50
3.180
 51
-176.820
  0
LINE
  8
0
 10
5.800
 20
0.894
 11
5.900
 21
-0.906
  0
LINE
  8
0
 10
6.000
 20
0.906
 11
6.100
 21
-0.894
  0
ARC
  8
0
 10
6.000
 20
-0.900
 40
0.100
 50
-176.820
 51
3.180
  0
LINE
  8
0
 10
6.000
 20
0.906
 11
6.000
 21
0.903
  0
LINE
  8
0
 10
6.100
 20
-0.906
 11
6.100
 21
-0.903
  0
ARC
  8
0
 10
6.100
 20
0.900
 40
0.100
 50
3.180
 51
-176.820
  0
LINE
  8
0
 10
6.000
 20
0.894
 11
6.100
 21
-0.906
  0
LINE
  8
0
 10
6.200
 20
0.906
 11
6.300
 21
-0.894
  0
ARC
  8
0
 10
6.200
 20
-0.900
 40
0.100
 50
-176.820
 51
3.180
  0
LINE
  8
0
 10
6.200
 20
0.906
 11
6.200
 21
0.903
  0
LINE
  8
0
 10
6.300
 20
-0.906
 11
6.300
 21
-0.903
  0
ARC
  8
0
 10
6.300
 20
0.900
 40
0.100
 50
3.180
 51
-176.820
  0
LINE
  8
0
 10
6.200
 20
0.894
 11
6.300
 21
-0.906
  0
LINE
  8
0
 10
6.400
 20
0.906
 11
6.500
 21
-0.894
  0
ARC
  8
0
 10
6.400
 20
-0.900
 40
0.100
 50
-176.820
 51
3.180
  0
LINE
  8
0
 10
6.400
 20
0.906
 11
6.400
 21
0.903
  0
LINE
  8
0
 10
6.500
 20
-0.906
 11
6.500
 21
-0.903
  0
ARC
  8
0
 10
6.500
 20
0.900
 40
0.100
 50
3.180
 51
-176.820
  0
LINE
  8
0
 10
6.400
 20
0.894
 11
6.500
 21
-0.906
  0
LINE
  8
0
 10
6.600
 20
0.906
 11
6.700
 21
-0.894
  0
ARC
  8
0
 10
6.600
 20
-0.900
 40
0.100
 50
-176.820
 51
3.180
  0
LINE
  8
0
 10
6.600
 20
0.906
 11
6.600
 21
0.903
  0
LINE
  8
0
 10
6.700
 20
-0.906
 11
6.700
 21
-0.903
  0
ARC
  8
0
 10
6.700
 20
0.900
 40
0.100
 50
3.180
 51
-176.820
  0
LINE
  8
0
 10
6.600
 20
0.894
 11
6.700
 21
-0.906
  0
LINE
  8
0
 10
6.800
 20
0.906
 11
6.900
 21
-0.894
  0
ARC
  8
0
 10
6.800
 20
-0.900
 40
0.100
 50
-176.820
 51
3.180
  0
LINE
  8
0
 10
6.800
 20
0.906
 11
6.800
 21
0.903
  0
LINE
  8
0
 10
6.900
 20
-0.906
 11
6.900
 21
-0.903
  0
ARC
  8
0
 10
6.900
 20
0.900
 40
0.100
 50
3.180
 51
-176.820
  0
LINE
  8
0
 10
6.800
 20
0.894
 11
6.900
 21
-0.906
  0
LINE
  8
0
 10
7.000
 20
0.906
 11
7.100
 21
-0.894
  0
ARC
  8
0
 10
7.000
 20
-0.900
 40
0.100
 50
-176.820
 51
3.180
  0
LINE
  8
0
 10
7.000
 20
0.906
 11
7.000
 21
0.903
  0
LINE
  8
0
 10
7.100
 20
-0.906
 11
7.100
 21
-0.903
  0
ARC
  8
0
 10
7.100
 20
0.900
 40
0.100
 50
3.180
 51
-176.820
  0
LINE
  8
0
 10
7.000
 20
0.894
 11
7.100
 21
-0.906
  0
LINE
  8
0
 10
7.200
 20
0.906
 11
7.300
 21
-0.894
  0
ARC
  8
0
 10
7.200
 20
-0.900
 40
0.100
 50
-176.820
 51
3.180
  0
LINE
  8
0
 10
7.200
 20
0.906
 11
7.200
 21
0.903
  0
LINE
  8
0
 10
7.300
 20
-0.906
 11
7.300
 21
-0.903
  0
ARC
  8
0
 10
7.300
 20
0.900
 40
0.100
 50
3.180
 51
-176.820
  0
LINE
  8
0
 10
7.200
 20
0.894
 11
7.300
 21
-0.906
  0
LINE
  8
0
 10
7.400
 20
0.906
 11
7.500
 21
-0.894
  0
ARC
  8
0
 10
7.400
 20
-0.900
 40
0.100
 50
-176.820
 51
3.180
  0
LINE
  8
0
 10
7.400
 20
0.906
 11
7.400
 21
0.903
  0
LINE
  8
0
 10
7.500
 20
-0.906
 11
7.500
 21
-0.903
  0
ARC
  8
0
 10
7.500
 20
0.900
 40
0.100
 50
3.180
 51
-176.820
  0
LINE
  8
0
 10
7.400
 20
0.894
 11
7.500
 21
-0.906
  0
LINE
  8
0
 10
7.600
 20
0.906
 11
7.700
 21
-0.894
  0
ARC
  8
0
 10
7.600
 20
-0.900
 40
0.100
 50
-176.820
 51
3.180
  0
LINE
  8
0
 10
7.600
 20
0.906
 11
7.600
 21
0.903
  0
LINE
  8
0
 10
7.700
 20
-0.906
 11
7.700
 21
-0.903
  0
ARC
  8
0
 10
7.700
 20
0.900
 40
0.100
 50
3.180
 51
-176.820
  0
LINE
  8
0
 10
7.600
 20
0.894
 11
7.700
 21
-0.906
  0
LINE
  8
0
 10
7.800
 20
0.906
 11
7.900
 21
-0.894
  0
ARC
  8
0
 10
7.800
 20
-0.900
 40
0.100
 50
-176.820
 51
3.180
  0
LINE
  8
0
 10
7.800
 20
0.906
 11
7.800
 21
0.903
  0
LINE
  8
0
 10
7.900
 20
-0.906
 11
7.900
 21
-0.903
  0
ARC
  8
0
 10
7.900
 20
0.900
 40
0.100
 50
3.180
 51
-176.820
  0
LINE
  8
0
 10
7.800
 20
0.894
 11
7.900
 21
-0.906
  0
LINE
  8
0
 10
8.000
 20
0.906
 11
8.100
 21
-0.894
  0
ARC
  8
0
 10
8.000
 20
-0.900
 40
0.100
 50
-176.820
 51
3.180
  0
LINE
  8
0
 10
8.000
 20
0.906
 11
8.000
 21
0.903
  0
LINE
  8
0
 10
8.100
 20
-0.906
 11
8.100
 21
-0.903
  0
ARC
  8
0
 10
8.100
 20
0.900
 40
0.100
 50
3.180
 51
-176.820
  0
LINE
  8
0
 10
8.000
 20
0.894
 11
8.100
 21
-0.906
  0
LINE
  8
0
 10
8.200
 20
0.906
 11
8.300
 21
-0.894
  0
ARC
  8
0
 10
8.200
 20
-0.900
 40
0.100
 50
-176.820
 51
3.180
  0
LINE
  8
0
 10
8.200
 20
0.906
 11
8.200
 21
0.903
  0
LINE
  8
0
 10
8.300
 20
-0.906
 11
8.300
 21
-0.903
  0
ARC
  8
0
 10
8.300
 20
0.900
 40
0.100
 50
3.180
 51
-176.820
  0
LINE
  8
0
 10
8.200
 20
0.894
 11
8.300
 21
-0.906
  0
LINE
  8
0
 10
8.400
 20
0.906
 11
8.500
 21
-0.894
  0
ARC
  8
0
 10
8.400
 20
-0.900
 40
0.100
 50
-176.820
 51
3.180
  0
LINE
  8
0
 10
8.400
 20
0.906
 11
8.400
 21
0.903
  0
LINE
  8
0
 10
8.500
 20
-0.906
 11
8.500
 21
-0.903
  0
ARC
  8
0
 10
8.500
 20
0.900
 40
0.100
 50
3.180
 51
-176.820
  0
LINE
  8
0
 10
8.400
 20
0.894
 11
8.500
 21
-0.906
  0
LINE
  8
0
 10
8.600
 20
0.906
 11
8.700
 21
-0.894
  0
ARC
  8
0
 10
8.600
 20
-0.900
 40
0.100
 50
-176.820
 51
3.180
  0
LINE
  8
0
 10
8.600
 20
0.906
 11
8.600
 21
0.903
  0
LINE
  8
0
 10
8.700
 20
-0.906
 11
8.700
 21
-0.903
  0
ARC
  8
0
 10
8.700
 20
0.900
 40
0.100
 50
3.180
 51
-176.820
  0
LINE
  8
0
 10
8.600
 20
0.894
 11
8.700
 21
-0.906
  0
LINE
  8
0
 10
8.800
 20
0.906
 11
8.900
 21
-0.894
  0
ARC
  8
0
 10
8.800
 20
-0.900
 40
0.100
 50
-176.820
 51
3.180
  0
LINE
  8
0
 10
8.800
 20
0.906
 11
8.800
 21
0.903
  0
LINE
  8
0
 10
8.900
 20
-0.906
 11
8.900
 21
-0.903
  0
ARC
  8
0
 10
8.900
 20
0.900
 40
0.100
 50
3.180
 51
-176.820
  0
LINE
  8
0
 10
8.800
 20
0.894
 11
8.900
 21
-0.906
  0
LINE
  8
0
 10
9.000
 20
0.906
 11
9.100
 21
-0.894
  0
ARC
  8
0
 10
9.000
 20
-0.900
 40
0.100
 50
-176.820
 51
3.180
  0
LINE
  8
0
 10
9.000
 20
0.906
 11
9.000
 21
0.903
  0
LINE
  8
0
 10
9.100
 20
-0.906
 11
9.100
 21
-0.903
  0
ARC
  8
0
 10
9.100
 20
0.900
 40
0.100
 50
3.180
 51
-176.820
  0
LINE
  8
0
 10
9.000
 20
0.894
 11
9.100
 21
-0.906
  0
LINE
  8
0
 10
9.200
 20
0.906
 11
9.300
 21
-0.894
  0
ARC
  8
0
 10
9.200
 20
-0.900
 40
0.100
 50
-176.820
 51
3.180
  0
LINE
  8
0
 10
9.200
 20
0.906
 11
9.200
 21
0.903
  0
LINE
  8
0
 10
9.300
 20
-0.906
 11
9.300
 21
-0.903
  0
ARC
  8
0
 10
9.300
 20
0.900
 40
0.100
 50
3.180
 51
-176.820
  0
LINE
  8
0
 10
9.200
 20
0.894
 11
9.300
 21
-0.906
  0
LINE
  8
0
 10
9.400
 20
0.906
 11
9.500
 21
-0.894
  0
ARC
  8
0
 10
9.400
 20
-0.900
 40
0.100
 50
-176.820
 51
3.180
  0
LINE
  8
0
 10
9.400
 20
0.906
 11
9.400
 21
0.903
  0
LINE
  8
0
 10
9.500
 20
-0.906
 11
9.500
 21
-0.903
  0
ARC
  8
0
 10
9.500
 20
0.900
 40
0.100
 50
3.180
 51
-176.820
  0
LINE
  8
0
 10
9.400
 20
0.894
 11
9.500
 21
-0.906
  0
LINE
  8
0
 10
9.600
 20
0.906
 11
9.700
 21
-0.894
  0
ARC
  8
0
 10
9.600
 20
-0.900
 40
0.100
 50
-176.820
 51
3.180
  0
LINE
  8
0
 10
9.600
 20
0.906
 11
9.600
 21
0.903
  0
LINE
  8
0
 10
9.700
 20
-0.906
 11
9.700
 21
-0.903
  0
ARC
  8
0
 10
9.700
 20
0.900
 40
0.100
 50
3.180
 51
-176.820
  0
LINE
  8
0
 10
9.600
 20
0.894
 11
9.700
 21
-0.906
  0
LINE
  8
0
 10
9.800
 20
0.906
 11
9.900
 21
-0.894
  0
ARC
  8
0
 10
9.800
 20
-0.900
 40
0.100
 50
-176.820
 51
3.180
  0
LINE
  8
0
 10
9.800
 20
0.906
 11
9.800
 21
0.903
  0
LINE
  8
0
 10
9.900
 20
-0.906
 11
9.900
 21
-0.903
  0
ARC
  8
0
 10
9.900
 20
0.900
 40
0.100
 50
3.180
 51
-176.820
  0
LINE
  8
0
 10
9.800
 20
0.894
 11
9.900
 21
-0.906
  0
LINE
  8
0
 10
10.000
 20
0.906
 11
10.100
 21
-0.894
  0
ARC
  8
0
 10
10.000
 20
-0.900
 40
0.100
 50
-176.820
 51
3.180
  0
LINE
  8
0
 10
10.000
 20
0.906
 11
10.000
 21
0.903
  0
LINE
  8
0
 10
10.100
 20
-0.906
 11
10.100
 21
-0.903
  0
ARC
  8
0
 10
10.100
 20
0.900
 40
0.100
 50
3.180
 51
-176.820
  0
LINE
  8
0
 10
10.000
 20
0.894
 11
10.100
 21
-0.906
  0
LINE
  8
0
 10
10.200
 20
0.906
 11
10.300
 21
-0.894
  0
ARC
  8
0
 10
10.200
 20
-0.900
 40
0.100
 50
-176.820
 51
3.180
  0
LINE
  8
0
 10
10.200
 20
0.906
 11
10.200
 21
0.903
  0
LINE
  8
0
 10
10.300
 20
-0.906
 11
10.300
 21
-0.903
  0
ARC
  8
0
 10
10.300
 20
0.900
 40
0.100
 50
3.180
 51
-176.820
  0
LINE
  8
0
 10
10.200
 20
0.894
 11
10.300
 21
-0.906
  0
LINE
  8
0
 10
10.400
 20
0.906
 11
10.500
 21
-0.894
  0
ARC
  8
0
 10
10.400
 20
-0.900
 40
0.100
 50
-176.820
 51
3.180
  0
LINE
  8
0
 10
10.400
 20
0.906
 11
10.400
 21
0.903
  0
LINE
  8
0
 10
10.500
 20
-0.906
 11
10.500
 21
-0.903
  0
ARC
  8
0
 10
10.500
 20
0.900
 40
0.100
 50
3.180
 51
-176.820
  0
LINE
  8
0
 10
10.400
 20
0.894
 11
10.500
 21
-0.906
  0
LINE
  8
0
 10
10.600
 20
0.906
 11
10.700
 21
-0.894
  0
ARC
  8
0
 10
10.600
 20
-0.900
 40
0.100
 50
-176.820
 51
3.180
  0
LINE
  8
0
 10
10.600
 20
0.906
 11
10.600
 21
0.903
  0
LINE
  8
0
 10
10.700
 20
-0.906
 11
10.700
 21
-0.903
  0
ARC
  8
0
 10
10.700
 20
0.900
 40
0.100
 50
3.180
 51
-176.820
  0
LINE
  8
0
 10
10.600
 20
0.894
 11
10.700
 21
-0.906
  0
LINE
  8
0
 10
10.800
 20
0.906
 11
10.900
 21
-0.894
  0
ARC
  8
0
 10
10.800
 20
-0.900
 40
0.100
 50
-176.820
 51
3.180
  0
LINE
  8
0
 10
10.800
 20
0.906
 11
10.800
 21
0.903
  0
LINE
  8
0
 10
10.900
 20
-0.906
 11
10.900
 21
-0.903
  0
ARC
  8
0
 10
10.900
 20
0.900
 40
0.100
 50
3.180
 51
-176.820
  0
LINE
  8
0
 10
10.800
 20
0.894
 11
10.888
 21
-0.681
  0
LINE
  8
0
 10
11.000
 20
0.906
 11
11.087
 21
-0.669
  0
ARC
  8
0
 10
10.988
 20
-0.675
 40
0.100
 50
-176.820
 51
3.180
  0
LINE
  8
0
 10
11.087
 20
-0.677
 11
11.100
 21
0.015
  0
ARC
  8
0
 10
11.900
 20
0.000
 40
0.800
 50
-112.500
 51
178.952
  0
ARC
  8
0
 10
11.900
 20
0.000
 40
1.000
 50
-112.500
 51
151.233
  0
LINE
  8
0
 10
11.517
 20
-0.924
 11
11.594
 21
-0.739
  0
ENDSEC
  0
EOF
