  0
SECTION
  2
ENTITIES
  0
ARC
  8
0
 10
0.770
 20
0.000
 40
0.770
 50
67.500
 51
-1.223
  0
ARC
  8
0
 10
0.770
 20
0.000
 40
1.000
 50
67.500
 51
-30.642
  0
LINE
  8
0
 10
1.065
 20
0.711
 11
1.153
 21
0.924
  0
LINE
  8
0
 10
1.540
 20
-0.016
 11
1.554
 21
0.666
  0
ARC
  8
0
 10
1.669
 20
0.664
 40
0.115
 50
3.717
 51
-176.283
  0
LINE
  8
0
 10
1.555
 20
0.656
 11
1.655
 21
-0.892
  0
LINE
  8
0
 10
1.784
 20
0.671
 11
1.885
 21
-0.878
  0
ARC
  8
0
 10
1.770
 20
-0.885
 40
0.115
 50
-176.283
 51
3.717
  0
LINE
  8
0
 10
1.770
 20
0.892
 11
1.770
 21
0.889
  0
LINE
  8
0
 10
1.885
 20
-0.892
 11
1.885
 21
-0.889
  0
ARC
  8
0
 10
1.885
 20
0.885
 40
0.115
 50
3.717
 51
-176.283
  0
LINE
  8
0
 10
1.770
 20
0.878
 11
1.885
 21
-0.892
  0
LINE
  8
0
 10
2.000
 20
0.892
 11
2.115
 21
-0.878
  0
ARC
  8
0
 10
2.000
 20
-0.885
 40
0.115
 50
-176.283
 51
3.717
  0
LINE
  8
0
 10
2.000
 20
0.892
 11
2.000
 21
0.889
  0
LINE
  8
0
 10
2.115
 20
-0.892
 11
2.115
 21
-0.889
  0
ARC
  8
0
 10
2.115
 20
0.885
 40
0.115
 50
3.717
 51
-176.283
  0
LINE
  8
0
 10
2.000
 20
0.878
 11
2.115
 21
-0.892
  0
LINE
  8
0
 10
2.230
 20
0.892
 11
2.345
 21
-0.878
  0
ARC
  8
0
 10
2.230
 20
-0.885
 40
0.115
 50
-176.283
 51
3.717
  0
LINE
  8
0
 10
2.230
 20
0.892
 11
2.230
 21
0.889
  0
LINE
  8
0
 10
2.345
 20
-0.892
 11
2.345
 21
-0.889
  0
ARC
  8
0
 10
2.345
 20
0.885
 40
0.115
 50
3.717
 51
-176.283
  0
LINE
  8
0
 10
2.230
 20
0.878
 11
2.345
 21
-0.892
  0
LINE
  8
0
 10
2.460
 20
0.892
 11
2.575
 21
-0.878
  0
ARC
  8
0
 10
2.460
 20
-0.885
 40
0.115
 50
-176.283
 51
3.717
  0
LINE
  8
0
 10
2.460
 20
0.892
 11
2.460
 21
0.889
  0
LINE
  8
0
 10
2.575
 20
-0.892
 11
2.575
 21
-0.889
  0
ARC
  8
0
 10
2.575
 20
0.885
 40
0.115
 50
3.717
 51
-176.283
  0
LINE
  8
0
 10
2.460
 20
0.878
 11
2.575
 21
-0.892
  0
LINE
  8
0
 10
2.690
 20
0.892
 11
2.805
 21
-0.878
  0
ARC
  8
0
 10
2.690
 20
-0.885
 40
0.115
 50
-176.283
 51
3.717
  0
LINE
  8
0
 10
2.690
 20
0.892
 11
2.690
 21
0.889
  0
LINE
  8
0
 10
2.805
 20
-0.892
 11
2.805
 21
-0.889
  0
ARC
  8
0
 10
2.805
 20
0.885
 40
0.115
 50
3.717
 51
-176.283
  0
LINE
  8
0
 10
2.690
 20
0.878
 11
2.805
 21
-0.892
  0
LINE
  8
0
 10
2.920
 20
0.892
 11
3.035
 21
-0.878
  0
ARC
  8
0
 10
2.920
 20
-0.885
 40
0.115
 50
-176.283
 51
3.717
  0
LINE
  8
0
 10
2.920
 20
0.892
 11
2.920
 21
0.889
  0
LINE
  8
0
 10
3.035
 20
-0.892
 11
3.035
 21
-0.889
  0
ARC
  8
0
 10
3.035
 20
0.885
 40
0.115
 50
3.717
 51
-176.283
  0
LINE
  8
0
 10
2.920
 20
0.878
 11
3.035
 21
-0.892
  0
LINE
  8
0
 10
3.150
 20
0.892
 11
3.265
 21
-0.878
  0
ARC
  8
0
 10
3.150
 20
-0.885
 40
0.115
 50
-176.283
 51
3.717
  0
LINE
  8
0
 10
3.150
 20
0.892
 11
3.150
 21
0.889
  0
LINE
  8
0
 10
3.265
 20
-0.892
 11
3.265
 21
-0.889
  0
ARC
  8
0
 10
3.265
 20
0.885
 40
0.115
 50
3.717
 51
-176.283
  0
LINE
  8
0
 10
3.150
 20
0.878
 11
3.265
 21
-0.892
  0
LINE
  8
0
 10
3.380
 20
0.892
 11
3.495
 21
-0.878
  0
ARC
  8
0
 10
3.380
 20
-0.885
 40
0.115
 50
-176.283
 51
3.717
  0
LINE
  8
0
 10
3.380
 20
0.892
 11
3.380
 21
0.889
  0
LINE
  8
0
 10
3.495
 20
-0.892
 11
3.495
 21
-0.889
  0
ARC
  8
0
 10
3.495
 20
0.885
 40
0.115
 50
3.717
 51
-176.283
  0
LINE
  8
0
 10
3.380
 20
0.878
 11
3.495
 21
-0.892
  0
LINE
  8
0
 10
3.610
 20
0.892
 11
3.725
 21
-0.878
  0
ARC
  8
0
 10
3.610
 20
-0.885
 40
0.115
 50
-176.283
 51
3.717
  0
LINE
  8
0
 10
3.610
 20
0.892
 11
3.610
 21
0.889
  0
LINE
  8
0
 10
3.725
 20
-0.892
 11
3.725
 21
-0.889
  0
ARC
  8
0
 10
3.725
 20
0.885
 40
0.115
 50
3.717
 51
-176.283
  0
LINE
  8
0
 10
3.610
 20
0.878
 11
3.725
 21
-0.892
  0
LINE
  8
0
 10
3.840
 20
0.892
 11
3.955
 21
-0.878
  0
ARC
  8
0
 10
3.840
 20
-0.885
 40
0.115
 50
-176.283
 51
3.717
  0
LINE
  8
0
 10
3.840
 20
0.892
 11
3.840
 21
0.889
  0
LINE
  8
0
 10
3.955
 20
-0.892
 11
3.955
 21
-0.889
  0
ARC
  8
0
 10
3.955
 20
0.885
 40
0.115
 50
3.717
 51
-176.283
  0
LINE
  8
0
 10
3.840
 20
0.878
 11
3.955
 21
-0.892
  0
LINE
  8
0
 10
4.070
 20
0.892
 11
4.185
 21
-0.878
  0
ARC
  8
0
 10
4.070
 20
-0.885
 40
0.115
 50
-176.283
 51
3.717
  0
LINE
  8
0
 10
4.070
 20
0.892
 11
4.070
 21
0.889
  0
LINE
  8
0
 10
4.185
 20
-0.892
 11
4.185
 21
-0.889
  0
ARC
  8
0
 10
4.185
 20
0.885
 40
0.115
 50
3.717
 51
-176.283
  0
LINE
  8
0
 10
4.070
 20
0.878
 11
4.185
 21
-0.892
  0
LINE
  8
0
 10
4.300
 20
0.892
 11
4.415
 21
-0.878
  0
ARC
  8
0
 10
4.300
 20
-0.885
 40
0.115
 50
-176.283
 51
3.717
  0
LINE
  8
0
 10
4.300
 20
0.892
 11
4.300
 21
0.889
  0
LINE
  8
0
 10
4.415
 20
-0.892
 11
4.415
 21
-0.889
  0
ARC
  8
0
 10
4.415
 20
0.885
 40
0.115
 50
3.717
 51
-176.283
  0
LINE
  8
0
 10
4.300
 20
0.878
 11
4.415
 21
-0.892
  0
LINE
  8
0
 10
4.530
 20
0.892
 11
4.645
 21
-0.878
  0
ARC
  8
0
 10
4.530
 20
-0.885
 40
0.115
 50
-176.283
 51
3.717
  0
LINE
  8
0
 10
4.530
 20
0.892
 11
4.530
 21
0.889
  0
LINE
  8
0
 10
4.645
 20
-0.892
 11
4.645
 21
-0.889
  0
ARC
  8
0
 10
4.645
 20
0.885
 40
0.115
 50
3.717
 51
-176.283
  0
LINE
  8
0
 10
4.530
 20
0.878
 11
4.645
 21
-0.892
  0
LINE
  8
0
 10
4.760
 20
0.892
 11
4.875
 21
-0.878
  0
ARC
  8
0
 10
4.760
 20
-0.885
 40
0.115
 50
-176.283
 51
3.717
  0
LINE
  8
0
 10
4.760
 20
0.892
 11
4.760
 21
0.889
  0
LINE
  8
0
 10
4.875
 20
-0.892
 11
4.875
 21
-0.889
  0
ARC
  8
0
 10
4.875
 20
0.885
 40
0.115
 50
3.717
 51
-176.283
  0
LINE
  8
0
 10
4.760
 20
0.878
 11
4.875
 21
-0.892
  0
LINE
  8
0
 10
4.990
 20
0.892
 11
5.105
 21
-0.878
  0
ARC
  8
0
 10
4.990
 20
-0.885
 40
0.115
 50
-176.283
 51
3.717
  0
LINE
  8
0
 10
4.990
 20
0.892
 11
4.990
 21
0.889
  0
LINE
  8
0
 10
5.105
 20
-0.892
 11
5.105
 21
-0.889
  0
ARC
  8
0
 10
5.105
 20
0.885
 40
0.115
 50
3.717
 51
-176.283
  0
LINE
  8
0
 10
4.990
 20
0.878
 11
5.105
 21
-0.892
  0
LINE
  8
0
 10
5.220
 20
0.892
 11
5.335
 21
-0.878
  0
ARC
  8
0
 10
5.220
 20
-0.885
 40
0.115
 50
-176.283
 51
3.717
  0
LINE
  8
0
 10
5.220
 20
0.892
 11
5.220
 21
0.889
  0
LINE
  8
0
 10
5.335
 20
-0.892
 11
5.335
 21
-0.889
  0
ARC
  8
0
 10
5.335
 20
0.885
 40
0.115
 50
3.717
 51
-176.283
  0
LINE
  8
0
 10
5.220
 20
0.878
 11
5.335
 21
-0.892
  0
LINE
  8
0
 10
5.450
 20
0.892
 11
5.565
 21
-0.878
  0
ARC
  8
0
 10
5.450
 20
-0.885
 40
0.115
 50
-176.283
 51
3.717
  0
LINE
  8
0
 10
5.450
 20
0.892
 11
5.450
 21
0.889
  0
LINE
  8
0
 10
5.565
 20
-0.892
 11
5.565
 21
-0.889
  0
ARC
  8
0
 10
5.565
 20
0.885
 40
0.115
 50
3.717
 51
-176.283
  0
LINE
  8
0
 10
5.450
 20
0.878
 11
5.565
 21
-0.892
  0
LINE
  8
0
 10
5.680
 20
0.892
 11
5.795
 21
-0.878
  0
ARC
  8
0
 10
5.680
 20
-0.885
 40
0.115
 50
-176.283
 51
3.717
  0
LINE
  8
0
 10
5.680
 20
0.892
 11
5.680
 21
0.889
  0
LINE
  8
0
 10
5.795
 20
-0.892
 11
5.795
 21
-0.889
  0
ARC
  8
0
 10
5.795
 20
0.885
 40
0.115
 50
3.717
 51
-176.283
  0
LINE
  8
0
 10
5.680
 20
0.878
 11
5.795
 21
-0.892
  0
LINE
  8
0
 10
5.910
 20
0.892
 11
6.025
 21
-0.878
  0
ARC
  8
0
 10
5.910
 20
-0.885
 40
0.115
 50
-176.283
 51
3.717
  0
LINE
  8
0
 10
5.910
 20
0.892
 11
5.910
 21
0.889
  0
LINE
  8
0
 10
6.025
 20
-0.892
 11
6.025
 21
-0.889
  0
ARC
  8
0
 10
6.025
 20
0.885
 40
0.115
 50
3.717
 51
-176.283
  0
LINE
  8
0
 10
5.910
 20
0.878
 11
6.025
 21
-0.892
  0
LINE
  8
0
 10
6.140
 20
0.892
 11
6.255
 21
-0.878
  0
ARC
  8
0
 10
6.140
 20
-0.885
 40
0.115
 50
-176.283
 51
3.717
  0
LINE
  8
0
 10
6.140
 20
0.892
 11
6.140
 21
0.889
  0
LINE
  8
0
 10
6.255
 20
-0.892
 11
6.255
 21
-0.889
  0
ARC
  8
0
 10
6.255
 20
0.885
 40
0.115
 50
3.717
 51
-176.283
  0
LINE
  8
0
 10
6.140
 20
0.878
 11
6.255
 21
-0.892
  0
LINE
  8
0
 10
6.370
 20
0.892
 11
6.485
 21
-0.878
  0
ARC
  8
0
 10
6.370
 20
-0.885
 40
0.115
 50
-176.283
 51
3.717
  0
LINE
  8
0
 10
6.370
 20
0.892
 11
6.370
 21
0.889
  0
LINE
  8
0
 10
6.485
 20
-0.892
 11
6.485
 21
-0.889
  0
ARC
  8
0
 10
6.485
 20
0.885
 40
0.115
 50
3.717
 51
-176.283
  0
LINE
  8
0
 10
6.370
 20
0.878
 11
6.485
 21
-0.892
  0
LINE
  8
0
 10
6.600
 20
0.892
 11
6.715
 21
-0.878
  0
ARC
  8
0
 10
6.600
 20
-0.885
 40
0.115
 50
-176.283
 51
3.717
  0
LINE
  8
0
 10
6.600
 20
0.892
 11
6.600
 21
0.889
  0
LINE
  8
0
 10
6.715
 20
-0.892
 11
6.715
 21
-0.889
  0
ARC
  8
0
 10
6.715
 20
0.885
 40
0.115
 50
3.717
 51
-176.283
  0
LINE
  8
0
 10
6.600
 20
0.878
 11
6.715
 21
-0.892
  0
LINE
  8
0
 10
6.830
 20
0.892
 11
6.945
 21
-0.878
  0
ARC
  8
0
 10
6.830
 20
-0.885
 40
0.115
 50
-176.283
 51
3.717
  0
LINE
  8
0
 10
6.830
 20
0.892
 11
6.830
 21
0.889
  0
LINE
  8
0
 10
6.945
 20
-0.892
 11
6.945
 21
-0.889
  0
ARC
  8
0
 10
6.945
 20
0.885
 40
0.115
 50
3.717
 51
-176.283
  0
LINE
  8
0
 10
6.830
 20
0.878
 11
6.945
 21
-0.892
  0
LINE
  8
0
 10
7.060
 20
0.892
 11
7.175
 21
-0.878
  0
ARC
  8
0
 10
7.060
 20
-0.885
 40
0.115
 50
-176.283
 51
3.717
  0
LINE
  8
0
 10
7.060
 20
0.892
 11
7.060
 21
0.889
  0
LINE
  8
0
 10
7.175
 20
-0.892
 11
7.175
 21
-0.889
  0
ARC
  8
0
 10
7.175
 20
0.885
 40
0.115
 50
3.717
 51
-176.283
  0
LINE
  8
0
 10
7.060
 20
0.878
 11
7.175
 21
-0.892
  0
LINE
  8
0
 10
7.290
 20
0.892
 11
7.405
 21
-0.878
  0
ARC
  8
0
 10
7.290
 20
-0.885
 40
0.115
 50
-176.283
 51
3.717
  0
LINE
  8
0
 10
7.290
 20
0.892
 11
7.290
 21
0.889
  0
LINE
  8
0
 10
7.405
 20
-0.892
 11
7.405
 21
-0.889
  0
ARC
  8
0
 10
7.405
 20
0.885
 40
0.115
 50
3.717
 51
-176.283
  0
LINE
  8
0
 10
7.290
 20
0.878
 11
7.405
 21
-0.892
  0
LINE
  8
0
 10
7.520
 20
0.892
 11
7.635
 21
-0.878
  0
ARC
  8
0
 10
7.520
 20
-0.885
 40
0.115
 50
-176.283
 51
3.717
  0
LINE
  8
0
 10
7.520
 20
0.892
 11
7.520
 21
0.889
  0
LINE
  8
0
 10
7.635
 20
-0.892
 11
7.635
 21
-0.889
  0
ARC
  8
0
 10
7.635
 20
0.885
 40
0.115
 50
3.717
 51
-176.283
  0
LINE
  8
0
 10
7.520
 20
0.878
 11
7.635
 21
-0.892
  0
LINE
  8
0
 10
7.750
 20
0.892
 11
7.865
 21
-0.878
  0
ARC
  8
0
 10
7.750
 20
-0.885
 40
0.115
 50
-176.283
 51
3.717
  0
LINE
  8
0
 10
7.750
 20
0.892
 11
7.750
 21
0.889
  0
LINE
  8
0
 10
7.865
 20
-0.892
 11
7.865
 21
-0.889
  0
ARC
  8
0
 10
7.865
 20
0.885
 40
0.115
 50
3.717
 51
-176.283
  0
LINE
  8
0
 10
7.750
 20
0.878
 11
7.865
 21
-0.892
  0
LINE
  8
0
 10
7.980
 20
0.892
 11
8.095
 21
-0.878
  0
ARC
  8
0
 10
7.980
 20
-0.885
 40
0.115
 50
-176.283
 51
3.717
  0
LINE
  8
0
 10
7.980
 20
0.892
 11
7.980
 21
0.889
  0
LINE
  8
0
 10
8.095
 20
-0.892
 11
8.095
 21
-0.889
  0
ARC
  8
0
 10
8.095
 20
0.885
 40
0.115
 50
3.717
 51
-176.283
  0
LINE
  8
0
 10
7.980
 20
0.878
 11
8.095
 21
-0.892
  0
LINE
  8
0
 10
8.210
 20
0.892
 11
8.325
 21
-0.878
  0
ARC
  8
0
 10
8.210
 20
-0.885
 40
0.115
 50
-176.283
 51
3.717
  0
LINE
  8
0
 10
8.210
 20
0.892
 11
8.210
 21
0.889
  0
LINE
  8
0
 10
8.325
 20
-0.892
 11
8.325
 21
-0.889
  0
ARC
  8
0
 10
8.325
 20
0.885
 40
0.115
 50
3.717
 51
-176.283
  0
LINE
  8
0
 10
8.210
 20
0.878
 11
8.325
 21
-0.892
  0
LINE
  8
0
 10
8.440
 20
0.892
 11
8.555
 21
-0.878
  0
ARC
  8
0
 10
8.440
 20
-0.885
 40
0.115
 50
-176.283
 51
3.717
  0
LINE
  8
0
 10
8.440
 20
0.892
 11
8.440
 21
0.889
  0
LINE
  8
0
 10
8.555
 20
-0.892
 11
8.555
 21
-0.889
  0
ARC
  8
0
 10
8.555
 20
0.885
 40
0.115
 50
3.717
 51
-176.283
  0
LINE
  8
0
 10
8.440
 20
0.878
 11
8.555
 21
-0.892
  0
LINE
  8
0
 10
8.670
 20
0.892
 11
8.785
 21
-0.878
  0
ARC
  8
0
 10
8.670
 20
-0.885
 40
0.115
 50
-176.283
 51
3.717
  0
LINE
  8
0
 10
8.670
 20
0.892
 11
8.670
 21
0.889
  0
LINE
  8
0
 10
8.785
 20
-0.892
 11
8.785
 21
-0.889
  0
ARC
  8
0
 10
8.785
 20
0.885
 40
0.115
 50
3.717
 51
-176.283
  0
LINE
  8
0
 10
8.670
 20
0.878
 11
8.785
 21
-0.892
  0
LINE
  8
0
 10
8.900
 20
0.892
 11
9.015
 21
-0.878
  0
ARC
  8
0
 10
8.900
 20
-0.885
 40
0.115
 50
-176.283
 51
3.717
  0
LINE
  8
0
 10
8.900
 20
0.892
 11
8.900
 21
0.889
  0
LINE
  8
0
 10
9.015
 20
-0.892
 11
9.015
 21
-0.889
  0
ARC
  8
0
 10
9.015
 20
0.885
 40
0.115
 50
3.717
 51
-176.283
  0
LINE
  8
0
 10
8.900
 20
0.878
 11
9.015
 21
-0.892
  0
LINE
  8
0
 10
9.130
 20
0.892
 11
9.245
 21
-0.878
  0
ARC
  8
0
 10
9.130
 20
-0.885
 40
0.115
 50
-176.283
 51
3.717
  0
LINE
  8
0
 10
9.130
 20
0.892
 11
9.130
 21
0.889
  0
LINE
  8
0
 10
9.245
 20
-0.892
 11
9.245
 21
-0.889
  0
ARC
  8
0
 10
9.245
 20
0.885
 40
0.115
 50
3.717
 51
-176.283
  0
LINE
  8
0
 10
9.130
 20
0.878
 11
9.245
 21
-0.892
  0
LINE
  8
0
 10
9.360
 20
0.892
 11
9.475
 21
-0.878
  0
ARC
  8
0
 10
9.360
 20
-0.885
 40
0.115
 50
-176.283
 51
3.717
  0
LINE
  8
0
 10
9.360
 20
0.892
 11
9.360
 21
0.889
  0
LINE
  8
0
 10
9.475
 20
-0.892
 11
9.475
 21
-0.889
  0
ARC
  8
0
 10
9.475
 20
0.885
 40
0.115
 50
3.717
 51
-176.283
  0
LINE
  8
0
 10
9.360
 20
0.878
 11
9.475
 21
-0.892
  0
LINE
  8
0
 10
9.590
 20
0.892
 11
9.705
 21
-0.878
  0
ARC
  8
0
 10
9.590
 20
-0.885
 40
0.115
 50
-176.283
 51
3.717
  0
LINE
  8
0
 10
9.590
 20
0.892
 11
9.590
 21
0.889
  0
LINE
  8
0
 10
9.705
 20
-0.892
 11
9.705
 21
-0.889
  0
ARC
  8
0
 10
9.705
 20
0.885
 40
0.115
 50
3.717
 51
-176.283
  0
LINE
  8
0
 10
9.590
 20
0.878
 11
9.705
 21
-0.892
  0
LINE
  8
0
 10
9.820
 20
0.892
 11
9.935
 21
-0.878
  0
ARC
  8
0
 10
9.820
 20
-0.885
 40
0.115
 50
-176.283
 51
3.717
  0
LINE
  8
0
 10
9.820
 20
0.892
 11
9.820
 21
0.889
  0
LINE
  8
0
 10
9.935
 20
-0.892
 11
9.935
 21
-0.889
  0
ARC
  8
0
 10
9.935
 20
0.885
 40
0.115
 50
3.717
 51
-176.283
  0
LINE
  8
0
 10
9.820
 20
0.878
 11
9.935
 21
-0.892
  0
LINE
  8
0
 10
10.050
 20
0.892
 11
10.165
 21
-0.878
  0
ARC
  8
0
 10
10.050
 20
-0.885
 40
0.115
 50
-176.283
 51
3.717
  0
LINE
  8
0
 10
10.050
 20
0.892
 11
10.050
 21
0.889
  0
LINE
  8
0
 10
10.165
 20
-0.892
 11
10.165
 21
-0.889
  0
ARC
  8
0
 10
10.165
 20
0.885
 40
0.115
 50
3.717
 51
-176.283
  0
LINE
  8
0
 10
10.050
 20
0.878
 11
10.165
 21
-0.892
  0
LINE
  8
0
 10
10.280
 20
0.892
 11
10.395
 21
-0.878
  0
ARC
  8
0
 10
10.280
 20
-0.885
 40
0.115
 50
-176.283
 51
3.717
  0
LINE
  8
0
 10
10.280
 20
0.892
 11
10.280
 21
0.889
  0
LINE
  8
0
 10
10.395
 20
-0.892
 11
10.395
 21
-0.889
  0
ARC
  8
0
 10
10.395
 20
0.885
 40
0.115
 50
3.717
 51
-176.283
  0
LINE
  8
0
 10
10.280
 20
0.878
 11
10.395
 21
-0.892
  0
LINE
  8
0
 10
10.510
 20
0.892
 11
10.625
 21
-0.878
  0
ARC
  8
0
 10
10.510
 20
-0.885
 40
0.115
 50
-176.283
 51
3.717
  0
LINE
  8
0
 10
10.510
 20
0.892
 11
10.510
 21
0.889
  0
LINE
  8
0
 10
10.625
 20
-0.892
 11
10.625
 21
-0.889
  0
ARC
  8
0
 10
10.625
 20
0.885
 40
0.115
 50
3.717
 51
-176.283
  0
LINE
  8
0
 10
10.510
 20
0.878
 11
10.625
 21
-0.892
  0
LINE
  8
0
 10
10.740
 20
0.892
 11
10.855
 21
-0.878
  0
ARC
  8
0
 10
10.740
 20
-0.885
 40
0.115
 50
-176.283
 51
3.717
  0
LINE
  8
0
 10
10.740
 20
0.892
 11
10.740
 21
0.889
  0
LINE
  8
0
 10
10.855
 20
-0.892
 11
10.855
 21
-0.889
  0
ARC
  8
0
 10
10.855
 20
0.885
 40
0.115
 50
3.717
 51
-176.283
  0
LINE
  8
0
 10
10.740
 20
0.878
 11
10.855
 21
-0.892
  0
LINE
  8
0
 10
10.970
 20
0.892
 11
11.085
 21
-0.878
  0
ARC
  8
0
 10
10.970
 20
-0.885
 40
0.115
 50
-176.283
 51
3.717
  0
LINE
  8
0
 10
10.970
 20
0.892
 11
10.970
 21
0.889
  0
LINE
  8
0
 10
11.085
 20
-0.892
 11
11.085
 21
-0.889
  0
ARC
  8
0
 10
11.085
 20
0.885
 40
0.115
 50
3.717
 51
-176.283
  0
LINE
  8
0
 10
10.970
 20
0.878
 11
11.085
 21
-0.892
  0
LINE
  8
0
 10
11.200
 20
0.892
 11
11.315
 21
-0.878
  0
ARC
  8
0
 10
11.200
 20
-0.885
 40
0.115
 50
-176.283
 51
3.717
  0
LINE
  8
0
 10
11.200
 20
0.892
 11
11.200
 21
0.889
  0
LINE
  8
0
 10
11.315
 20
-0.892
 11
11.315
 21
-0.889
  0
ARC
  8
0
 10
11.315
 20
0.885
 40
0.115
 50
3.717
 51
-176.283
  0
LINE
  8
0
 10
11.200
 20
0.878
 11
11.315
 21
-0.892
  0
LINE
  8
0
 10
11.430
 20
0.892
 11
11.545
 21
-0.878
  0
ARC
  8
0
 10
11.430
 20
-0.885
 40
0.115
 50
-176.283
 51
3.717
  0
LINE
  8
0
 10
11.430
 20
0.892
 11
11.430
 21
0.889
  0
LINE
  8
0
 10
11.545
 20
-0.892
 11
11.545
 21
-0.889
  0
ARC
  8
0
 10
11.545
 20
0.885
 40
0.115
 50
3.717
 51
-176.283
  0
LINE
  8
0
 10
11.430
 20
0.878
 11
11.545
 21
-0.892
  0
LINE
  8
0
 10
11.660
 20
0.892
 11
11.775
 21
-0.878
  0
ARC
  8
0
 10
11.660
 20
-0.885
 40
0.115
 50
-176.283
 51
3.717
  0
LINE
  8
0
 10
11.660
 20
0.892
 11
11.660
 21
0.889
  0
LINE
  8
0
 10
11.775
 20
-0.892
 11
11.775
 21
-0.889
  0
ARC
  8
0
 10
11.775
 20
0.885
 40
0.115
 50
3.717
 51
-176.283
  0
LINE
  8
0
 10
11.660
 20
0.878
 11
11.775
 21
-0.892
  0
LINE
  8
0
 10
11.890
 20
0.892
 11
12.005
 21
-0.878
  0
ARC
  8
0
 10
11.890
 20
-0.885
 40
0.115
 50
-176.283
 51
3.717
  0
LINE
  8
0
 10
11.890
 20
0.892
 11
11.890
 21
0.889
  0
LINE
  8
0
 10
12.005
 20
-0.892
 11
12.005
 21
-0.889
  0
ARC
  8
0
 10
12.005
 20
0.885
 40
0.115
 50
3.717
 51
-176.283
  0
LINE
  8
0
 10
11.890
 20
0.878
 11
12.005
 21
-0.892
  0
LINE
  8
0
 10
12.120
 20
0.892
 11
12.235
 21
-0.878
  0
ARC
  8
0
 10
12.120
 20
-0.885
 40
0.115
 50
-176.283
 51
3.717
  0
LINE
  8
0
 10
12.120
 20
0.892
 11
12.120
 21
0.889
  0
LINE
  8
0
 10
12.235
 20
-0.892
 11
12.235
 21
-0.889
  0
ARC
  8
0
 10
12.235
 20
0.885
 40
0.115
 50
3.717
 51
-176.283
  0
LINE
  8
0
 10
12.120
 20
0.878
 11
12.235
 21
-0.892
  0
LINE
  8
0
 10
12.350
 20
0.892
 11
12.465
 21
-0.878
  0
ARC
  8
0
 10
12.350
 20
-0.885
 40
0.115
 50
-176.283
 51
3.717
  0
LINE
  8
0
 10
12.350
 20
0.892
 11
12.350
 21
0.889
  0
LINE
  8
0
 10
12.465
 20
-0.892
 11
12.465
 21
-0.889
  0
ARC
  8
0
 10
12.465
 20
0.885
 40
0.115
 50
3.717
 51
-176.283
  0
LINE
  8
0
 10
12.350
 20
0.878
 11
12.465
 21
-0.892
  0
LINE
  8
0
 10
12.580
 20
0.892
 11
12.695
 21
-0.878
  0
ARC
  8
0
 10
12.580
 20
-0.885
 40
0.115
 50
-176.283
 51
3.717
  0
LINE
  8
0
 10
12.580
 20
0.892
 11
12.580
 21
0.889
  0
LINE
  8
0
 10
12.695
 20
-0.892
 11
12.695
 21
-0.889
  0
ARC
  8
0
 10
12.695
 20
0.885
 40
0.115
 50
3.717
 51
-176.283
  0
LINE
  8
0
 10
12.580
 20
0.878
 11
12.695
 21
-0.892
  0
LINE
  8
0
 10
12.810
 20
0.892
 11
12.925
 21
-0.878
  0
ARC
  8
0
 10
12.810
 20
-0.885
 40
0.115
 50
-176.283
 51
3.717
  0
LINE
  8
0
 10
12.810
 20
0.892
 11
12.810
 21
0.889
  0
LINE
  8
0
 10
12.925
 20
-0.892
 11
12.925
 21
-0.889
  0
ARC
  8
0
 10
12.925
 20
0.885
 40
0.115
 50
3.717
 51
-176.283
  0
LINE
  8
0
 10
12.810
 20
0.878
 11
12.925
 21
-0.892
  0
LINE
  8
0
 10
13.040
 20
0.892
 11
13.155
 21
-0.878
  0
ARC
  8
0
 10
13.040
 20
-0.885
 40
0.115
 50
-176.283
 51
3.717
  0
LINE
  8
0
 10
13.040
 20
0.892
 11
13.040
 21
0.889
  0
LINE
  8
0
 10
13.155
 20
-0.892
 11
13.155
 21
-0.889
  0
ARC
  8
0
 10
13.155
 20
0.885
 40
0.115
 50
3.717
 51
-176.283
  0
LINE
  8
0
 10
13.040
 20
0.878
 11
13.155
 21
-0.892
  0
LINE
  8
0
 10
13.270
 20
0.892
 11
13.385
 21
-0.878
  0
ARC
  8
0
 10
13.270
 20
-0.885
 40
0.115
 50
-176.283
 51
3.717
  0
LINE
  8
0
 10
13.270
 20
0.892
 11
13.270
 21
0.889
  0
LINE
  8
0
 10
13.385
 20
-0.892
 11
13.385
 21
-0.889
  0
ARC
  8
0
 10
13.385
 20
0.885
 40
0.115
 50
3.717
 51
-176.283
  0
LINE
  8
0
 10
13.270
 20
0.878
 11
13.385
 21
-0.892
  0
LINE
  8
0
 10
13.500
 20
0.892
 11
13.615
 21
-0.878
  0
ARC
  8
0
 10
13.500
 20
-0.885
 40
0.115
 50
-176.283
 51
3.717
  0
LINE
  8
0
 10
13.500
 20
0.892
 11
13.500
 21
0.889
  0
LINE
  8
0
 10
13.615
 20
-0.892
 11
13.615
 21
-0.889
  0
ARC
  8
0
 10
13.615
 20
0.885
 40
0.115
 50
3.717
 51
-176.283
  0
LINE
  8
0
 10
13.500
 20
0.878
 11
13.615
 21
-0.892
  0
LINE
  8
0
 10
13.730
 20
0.892
 11
13.845
 21
-0.878
  0
ARC
  8
0
 10
13.730
 20
-0.885
 40
0.115
 50
-176.283
 51
3.717
  0
LINE
  8
0
 10
13.730
 20
0.892
 11
13.730
 21
0.889
  0
LINE
  8
0
 10
13.845
 20
-0.892
 11
13.845
 21
-0.889
  0
ARC
  8
0
 10
13.845
 20
0.885
 40
0.115
 50
3.717
 51
-176.283
  0
LINE
  8
0
 10
13.730
 20
0.878
 11
13.831
 21
-0.671
  0
LINE
  8
0
 10
13.960
 20
0.892
 11
14.060
 21
-0.656
  0
ARC
  8
0
 10
13.946
 20
-0.664
 40
0.115
 50
-176.283
 51
3.717
  0
LINE
  8
0
 10
14.061
 20
-0.666
 11
14.075
 21
0.016
  0
ARC
  8
0
 10
14.845
 20
0.000
 40
0.770
 50
-112.500
 51
178.777
  0
ARC
  8
0
 10
14.845
 20
0.000
 40
1.000
 50
-112.500
 51
149.358
  0
LINE
  8
0
 10
14.462
 20
-0.924
 11
14.550
 21
-0.711
  0
ENDSEC
  0
EOF
